Endless Pride

I Am What I Am

Endless Pride

tabs

by  AMAN_CLAUDINO

save to print version add songbook text version e-mail correct tuner
chordsukulelecavacokeyboardtabbassdrumsharmonicaflute Guitar Pro
close

there isn't a video lesson for this song

chords

I Am What I Am

	  		


Intro: 

E|-----------------------------------------------------------------| 
B|-----------------------------------------------------------------| 
G|-----------------------------------------------------------------| 
D|-----------------------------------------------------------------| 
A|-----------------------------------------------------------------| 
E|-5-0-0-3-0-0-5-0-0-3-0-0-6-0-5-0-5-0-0-3-0-0-5-0-0-3-0-0-6-0-5-0-| 

E|-----------------------------------------------------------------| 
B|-----------------------------------------------------------------| 
G|-----------------------------------------------------------------| 
D|-2-------------------------------2-------------------------------| 
A|-2-------------------------------2-------------------------------| 
E|-0-------------------------------0-------------------------------| 

E|-----------------------------------------------------------------| 
B|-----------------------------------------------------------------| 
G|-----------------------------------------------------------------| 
D|--------2-----------2-----3--2--------2-----------2-----3--2--2--| 
A|--5--2--0--2--5--2--0--2--1--0--5--2--0--2--5--2--0--2--1--0--2--| 
E|--3--0-----0--3--0-----0--------3--0-----0--3--0-----0--------0--| 
                                                                / 
                                                       Only last time. 
Verse: 

E|----------------------------------------------------------------| 
B|----------------------------------------------------------------| 
G|----------------------------------------------------------------| 
D|----------------------------------------------------------------| 
A|--5--2--2--2--2--5--2--2--2--5/7--5--2--2--2--2--5/7--5/7--8\7--| 
E|--3--0--0--0--0--3--0--0--0--3/5--3--0--0--0--0--3/5--3/5--6\5--| 

Chorus: 

E|----------------------------------------------------------| 
B|----------------------------------------------------------| 
G|----------------------------------------------------------| 
D|--2--2-2--2-2------------------------------------2--------| 
A|--0--0-0--0-0--3--3-3--3-3--5--5-5--5-5--5-0-2-3---3-2-0--| 
E|---------------1--1-1--1-1--3--3-3--3-3--3----------------| 

E|-------------------------------------------------------| 
B|-------------------------------------------------------| 
G|-------------------------------------------------------| 
D|--2--2-2--2-2------------------------------------------| 
A|--0--0-0--0-0--3--3-3--3-3--5--5-5--5-5--5--5-5--5-5-5-| 
E|---------------1--1-1--1-1--3--3-3--3-3--2--2-2--2-2-2-| 
		  

See also:

tabs Scalene - Milhares Como Eu tabs Deep Purple - Never A Word tabs Deep Purple - Smoke On The Water (Intro + solo 01) tabs Ira! - Flerte Fatal (intro e solo) tabs Deep Purple - Deep Purple - Smoke On The Water tabs Deep Purple - Burn
e-chords

Other versions:

tabs Jonas Brothers - I Am What I Am tabs Endless Pride - I Am What I Am tabs Idlewild - I Am What I Am Not
auto scroll beats size up size down change color hide chords drawings
tab show chords e-chords YouTube Clip e-chords hide all tabs e-chords go to top tab

share