Eminem

Superman

Eminem

tabs Intermediate intermediate

save to print version add songbook text version e-mail correct tuner
chordsukulelecavacokeyboardtabbassdrumsharmonicaflute Guitar Pro
close

there isn't a video lesson for this song

chords

Superman

	  		Guitar 1 (part 1)
Intro:
e|--------------------------------------------
B|--------------------------------------------
G|--------2---------------0---------0---------
D|-----2--------2-------2--------2----------2-
A|--0--------0-------3--------2----------2----
E|------------------------------------0-------

Guitar 1 (part 2)
e|--------------------------------------------
B|-----------------------------8------8----12-
G|---------2----------------9-------9------9--
D|------2---------2-----10--------9--------9--
A|---0---------0------------------------------
E|--------------------------------------------


Guitar 2 (over guitar 1 part 1)
Main riff:
e|--------------------------------------------
B|---5--7--8--10-12—10--8--7—-5~--------------
G|--------------------------------------------
D|--------------------------------------------
A|--------------------------------------------
E|--------------------------------------------

Guitar 2 (over guitar 1 part 2)
e|----------------7------10--8--7--------------
B|---5--7--8--10-----10------------------------
G|---------------------------------------------
D|---------------------------------------------
A|---------------------------------------------
E|---------------------------------------------

_______________________________________________________
Contribuição: gabriel m. pastore([email protected])
		  

auto scroll beats size up size down change color hide chords drawings
tab show chords e-chords YouTube Clip e-chords hide all tabs e-chords go to top tab

share