Emily's Army

home > Emily's Army

War Tab

Emily's Army

Difficulty: IntermediateIntermediate

by gustsilva

tuner correct add songbook print version text version save to e-mail
chordsukulelecavacokeyboardtabbassdrumsharmonicsflute Guitar Pro
chords

War

  		

Intro: 
e|---------------------------------------------3-----------------------------| 
B|------------------------3/5\3--1--------3/5----5\3--1----------------------| 
G|---0---------------0----------------------------------------5--------------| 
D|--------2----/2----------------------------------------5/7----7\5--2p0-----| 
A|----------3----------------------------------------------------------------| 
E|---------------------------------------------------------------------------| 

e|---------------------------------------------------------------------------| 
B|---------------------------------------------------------------------------| 
G|---------------------------------------------------------------------------| 
D|--555555555----------------------------------------------------------------| 
A|--333333333----------------------------------------------------------------| 
E|---------------------------------------------------------------------------| 

Verse: 
e|---------------------------------------------------------------------------| 
B|------------------6-6-6-6-6-6-6-6--3-3-3-3-3-3-3-3-------------------------| 
G|-5-5-5-5-5-5-5-5--5-5-5-5-5-5-5-5--2-2-2-2-2-2-2-2--4-4-4-4-4-4-4-4--------| 
D|-5-5-5-5-5-5-5-5--7-7-7-7-7-7-7-7--0-0-0-0-0-0-0-0--5-5-5-5-5-5-5-5--------| 
A|-3-3-3-3-3-3-3-3------------------------------------5-5-5-5-5-5-5-5--------| 
E|---------------------------------------------------------------------------| 
   *   *   *   *    *   *   *   *    *   *   *   *    *   *   *   * 

e|---------------------------------------------------------------------------| 
B|------------------6-6-6-6-6-6-6-6--3-3-3-3-3-3-3-3-------------------------| 
G|-5-5-5-5-5-5-5-5--5-5-5-5-5-5-5-5--2-2-2-2-2-2-2-2-------------------------| 
D|-5-5-5-5-5-5-5-5--7-7-7-7-7-7-7-7--0-0-0-0-0-0-0-0--555555555--------------| 
A|-3-3-3-3-3-3-3-3------------------------------------555555555--------------| 
E|----------------------------------------------------333333333--------------| 
   *   *   *   *    *   *   *   *    *   *   *   * 

Chorus: 
e|---------------------------------------------------------------------------| 
B|---------------------------------------------------------------------------| 
G|---------------5-(x13)-----------------------------------------------------| 
D|---------------5-----------------3-(x19)-----------------------------------| 
A|---------------3-----------------3-----------------------------------------| 
E|---------------------------------1-----------------------------------------| 
 "I'm not an expert,and I got no details, but it feels so retail like toy 

e|---------------------------------------------------------------------------| 
B|---------------------------------------------------------------------------| 
G|----------------5-(x13)-------4--------------------------------------------| 
D|-5-(x6)---------5-------------5-----------7-(x13)--------------------------| 
A|-5--------------3-------------2-----------7--------------------------------| 
E|-3----------------------------------------5--------------------------------| 
  soldiers in a store. Do they need our protection? 

e|---------------------------------------------------------------------------| 
B|---------------------------------------------------------------------------| 
G|---------------------------------------------------------------------------| 
D|--------------------3-(x13)------5--------5--------5-----------------------| 
A|--------------------3------------5--------5--------5-----------------------| 
E|--------------------1------------3--------3--------3-----------------------| 
  Do we need their direction, to keep our ways?" 

when the last 3-5-5 chord is played, you can choose to play this lead instead 
e|----3--------------------| 
B|3/5---5\3-1--------------| 
G|---------------5---------| 
D|-----------5/7---7\5-2p0-| 
A|-------------------------| 
E|-------------------------| 

e|---------------------------------------------------------------------------| 
B|---------------------------------------------------------------------------| 
G|---------------------------------------------------------------------------| 
D|---55555555----------------------------------------------------------------| 
A|---33333333----------------------------------------------------------------| 
E|---------------------------------------------------------------------------| 

|VERSE| 

|Chorus| 

Solo:  (RHYTHM) 
e|------------------------------------------|x2 
B|------------------------------------------| 
G|--5-(x15)-------------7-(x15)-------------| 
D|--5--------10-(x15)---7--------5-(x15)----| 
A|--3--------8----------5--------5----------| 
E|-------------------------------3----------| 

e|------| 
B|------| 
G|--5-~-| 
D|--5-~-| 
A|--3-~-| 
E|------| 

|Chorus| 

|OUTRO| 


************************************ 

| /   slide up 
| \   slide down 
| *   palm mute 
| p   pull-off 
| ~   let ring 

************************************ 
	  

Search Paypal
auto scroll beats size up size down change color hide chords drawings
tab show chords e-chords YouTube Clip e-chords hide all tabs e-chords go to top tab