Elwood

home > Elwood

SOS Tab

Elwood

Difficulty: nolevelnolevel

by 12321%BD

tuner correct add songbook print version text version save to e-mail
chordsukulelecavacokeyboardtabbassdrumsharmonicsflute Guitar Pro
chords

SOS

  		Vers/omkvæg 
e 
B----------------------------------- 
G----------------------------------- 
D--x-x-x-x-x-x-x-x-x-x-x-x-x-x-x-x-x 
A--7-7-7-7-10-10-10--5-5-5-5-5-5-5-5- 
E--5-5-5-5-8--8--8-8-3-3-3-3-3-3-3-3- 
 
bro 
e--------------------- 
B--------------------- 
G---------3-3-5-5----- 
D-3-3-5-5-3-3-5-5----- 
A-3-3-5-5-1-1-3-3----- 
E-1-l-3-3------------- 
 
Solo part 1. 
e----------------------------- 
B----------------------------- .bassen spiller det. 
G----------------------------/----------------------------------------------------------- 
D----------------------------/----------------------------------------------------------- 
A-------3----0-------------/--------------------------------------------------------- 
E---0-----------------------/------5-5-5-5-8-8-8-8-3-3-3-3-3-3-3-3-------------- 
Solo part 2.                             Solo part  3 
e--------------------------------/-------------------------------------------------------- 
B-------------------------------/---------------------------------------------------------- 
G-------------------------------/-------------------------------------------------------- 
D------------------------------/-------------------------------------------------------- 
A----------------0---3--------/------0--3--5--------------------------------------------- 
E-------------3---------------/----3---------------------------------------------------- 
 
Vers                 x8 
Vers bro           x2 
Omkvæg          x4 
Omkvæg bro    x2 
Vers                 x8 
Vers bro           x2 
Omkvæg          x8 
Omkvæg bro    x2 
Solo part 1.      x1 
Solo part 2       x1 
Solo part 1.      x1 
Solo part  3 
 

	  

Search Paypal
auto scroll beats size up size down change color hide chords drawings
tab show chords e-chords YouTube Clip e-chords hide all tabs e-chords go to top tab