Elvis Presley

home > Elvis Presley

Hound dog Tab

Elvis Presley

Difficulty: BeginnerBeginner

by Yedinak

tuner correct add songbook print version text version save to e-mail
chordsukulelecavacokeyboardtabbassdrumsharmonicsflute Guitar Pro
chords

Hound dog

Year: 1992 - Album: The King Of Rock 'N' Roll: The Complete 50's Masters

(Leiber / Stoller)

  		Hound Dog 
---------- 


GUITAR SOLO 1 
  |------------------------------------------------| 
  |------------------------------------------------| 
  |------------------------------------------------| 
  |--------1---1---1--------------1-3-1---1--------| 
  |----1-3---3---3---3-1-3----1-3-------3---3-1-3--| 
  |--3----------------------3----------------------| 

  |------------------------8-12-8--------------------| 
  |-------------------8-10--------12-9----9-10-9-10--| 
  |--------------8-10------------------11------------| 
  |----------6-8-------------------------------------| 
  |------6-8-----------------------------------------| 
  |--3/8---------------------------------------------| 

  |-----------------12-----------12-8------------| 
  |--9--------------12-8/-8/-8/--12-8-10-8-10-8--| 
  |----11-9----9-11----8/-8/-8/-------10-8-10-8--| 
  |---------11-----------------------------------| 
  |----------------------------------------------| 
  |----------------------------------------------| 

  |--12-8---------------------------| 
  |--12-8---------------------------| 
  |-------9-9-----------------------| 
  |-------9-9----------10-------10--| 
  |--------------10-12----12-10-----| 
  |-----------12--------------------| 

GUITAR SOLO 2 
  |-------------11----11----13-----/11-9-----------10-| 
  |----------------13----13----13--/11-9-10--8/-8/-10-| 
  |--8/5--10/1---------------------------10--8/-8/----| 
  |--7/4---9/1----------------------------------------| 
  |--8/5--10/2----------------------------------------| 
  |---------------------------------------------------| 

  |--12-----12-----9----9-----12-12p10--8--------| 
  |--12-10/-12-10/-9-7/-9-7/--12-12p10--8-10-----| 
  |-----10/----10/---7/---7/--------------10-----| 
  |------------------------------------------10--| 
  |----------------------------------------------| 
  |----------------------------------------------| 

  |------------------------| 
  |------------------------| 
  |--10-12----------10-12/-| 
  |--10----12-10-12----12/-| 
  |------------------------| 
  |------------------------| 


	  

Search Paypal
auto scroll beats size up size down change color hide chords drawings
tab show chords e-chords YouTube Clip e-chords hide all tabs e-chords go to top tab