Electric Flag

home > Electric Flag

Killing Floor Tab

Electric Flag

Difficulty: nolevelnolevel

by Nick+D

tuner correct add songbook print version text version save to e-mail
chordsukulelecavacokeyboardtabbassdrumsharmonicsflute Guitar Pro
chords

Killing Floor

  		
Gtr I (E A D G B E) - 'Mike Bloomfield - Lead w/dist' 
Gtr II (E A D G B E) - 'Mike Bloomfield - Rhythm clean electric' 

 Intro 
  Q=132 
 4/4 
  Gtr I 
                             <             < 
               ~~~           ~~~           ~~~ 
  W            H.      Q     H.      Q     H.      Q 
|----------||-------------|-------------|--------------| 
|----------||-------------|-/9----------|--------------| 
|----------||-/9----------|-------------|-/4-----------| 
|----------||-------------|-------------|--------------| 
|----------||-------------|-------------|--------------| 
|----------||-------------|-------------|--------------| 
| 
| Gtr II 
|              ~~~           ~~~           ~~~ 
| W            H.      Q     H.      Q     H.      Q 
|----------||-------------|-------------|--------------| 
|----------||-------------|-------------|--------------| 
|----------||-------------|-------------|--------------| 
|----------||-------------|-------------|--------------| 
|----------||-/7----------|-/7----------|-/7-------7\--| 
|----------||-------------|-------------|--------------| 


   < 
   ~~~ 
   H.      Q    W           W                  W 
|-------------|----------|-------------------|------------|| 
|-15----------|----------|-------------------|------------|| 
|-------------|----------|-------------------|------------|| 
|-------------|----------|-------------------|------------|| 
|-------------|----------|-------------------|------------|| 
|-------------|----------|-------------------|------------|| 
| 
|  W            W           Q   +Q    E Q  E   Q  Q  H 
|-------------|----------|-12--(12)\----3--4-|-5----------|| 
|-------------|----------|--9---(9)\----3--4-|-5----------|| 
|-------------|----------|-11--(11)\---------|-5----------|| 
|-------------|----------|-------------------|------------|| 
|-------------|----------|-------------------|------------|| 
|--0----------|----------|-------------------|------------|| 


            ~~~~ 
  Q        +H                 E S S   Q       H           a E E 
|-----------------------------5-----|---------------------------| 
|-8b10=====(8)r-----------------8-5-|---------------------------| 
|-----------------------------------|-5b6-----------------------| 
|-----------------------------------|---------7-----------5h7-7-| 
|-----------------------------------|---------------------------| 
|-----------------------------------|---------------------------| 
| 
| E.     S  s   E  S  s E  S  e E     s   E S s E S s E S   e E 
|--------9--9------9--9----9--9-----|-5-----5-5---5-5---5---5---| 
|-------10-10-----10-10---10-10-----|-5-----5-5---5-5---5---5---| 
|--------9--9------9--9----9--9-----|-6-----6-6---6-6---6---6---| 
|-----------------------------------|---------------------------| 
|-----------------------------------|---------------------------| 
|-----------------------------------|---------------------------| 


         ~~~~~~~~~~~~~~~~~~                     ~~ 
                              |--3--| 
  a  E   Q.            +E    +E     S  E E   a  H           E   E    E E 
|--------------------------------------5---|----------------8---9---10p9----| 
|--------5-------------(5)---(5)----5----5-|-8s10---------------------------| 
|-5h=6-------------------------------------|--------------------------------| 
|------------------------------------------|--------------------------------| 
|------------------------------------------|--------------------------------| 
|------------------------------------------|--------------------------------| 
| 
|    s E     S  s E  S  s  E      S    e E      s E S s E S s E   S  e E 
|----9-------9--9----9--9---------9----9---|----5---5-5---5-5-----5--5------| 
|---10------10-10---10-10--------10---10---|----5---5-5---5-5-----5--5------| 
|----9-------9--9----9--9---------9----9---|----6---6-6---6-6-----6--6------| 
|------------------------------------------|--------------------------------| 
|------------------------------------------|--------------------------------| 
|------------------------------------------|--------------------------------| 


   E   E    E    E    +Q      Q        +E     E    q      q         q 
|-10---8----------------------8b9====|=(8)r-------10-----10b11-----10b12---| 
|----------10---10---(10)------------|-------------------------------------| 
|------------------------------------|-------------------------------------| 
|------------------------------------|-------------------------------------| 
|------------------------------------|-------------------------------------| 
|------------------------------------|-------------------------------------| 
| 
|  s E   S  s E    S   s  E S e    E    s   E   S  s E S  s    E S  e    E 
|--8-----8--8------8---8----8-8------|--8-------8--8---8--8------8--8------| 
|--7-----7--7------7---7----7-7------|--7-------7--7---7--7------7--7------| 
|--7-----7--7------7---7----7-7------|--7-------7--7---7--7------7--7------| 
|------------------------------------|-------------------------------------| 
|------------------------------------|-------------------------------------| 
|------------------------------------|-------------------------------------| 


                        ~~~~~~~~~~ 
   E       +S   S  E    E     +Q.         E   +Q         +Q        E   E   E E 
|-10b12r==(10)p=8-------------------------8-|-(8)b9======(8)r\---------------5-| 
|-----------------10---10----(10)-----------|--------------------------5---7---| 
|-------------------------------------------|----------------------------------| 
|-------------------------------------------|----------------------------------| 
|-------------------------------------------|----------------------------------| 
|-------------------------------------------|----------------------------------| 
| 
|  s    E       S  s E     S   s  E  S  e e    s     E S  s    E S s E   S e E 
|--9------------9--9-------9---9-----9--9-7-|--5-------5--5------5-5-----5-5---| 
|-10-----------10-10------10--10----10-10-7-|--5-------5--5------5-5-----5-5---| 
|--9------------9--9-------9---9-----9--9-7-|--6-------6--6------6-6-----6-6---| 
|-------------------------------------------|----------------------------------| 
|-------------------------------------------|----------------------------------| 
|-------------------------------------------|----------------------------------| 


              |-3-|            |-----3-----|   |----------7----------| 
  Q     E.  S S S S E S  E S   q   Q    a  Q   E +E    E +E     E E  E 
|-7b9---7b9-5h7p5---5----5---|-5---5-----------8-(8)---8-(8)---10p9----| 
|-----------------7---7----5-|----------8s10------------------------10-| 
|----------------------------|-----------------------------------------| 
|----------------------------|-----------------------------------------| 
|----------------------------|-----------------------------------------| 
|----------------------------|-----------------------------------------| 
| 
| PM--|       PM----|          PM|             PM----| 
| E   E E.  S E     E E.   S   E E   E.      S E     E       Q 
|----------------------------|-------8-------8---------------8---------| 
|-------9---9---------9----9-|-------7-------7---------------7---------| 
|-------9---9---------9----9-|-------7-------7---------------7---------| 
|-------9---9---------9----9-|-------7-------7---------------7---------| 
|----------------------------|-----------------------------------------| 
|-7---7-------7-----7--------|-5-5-------------5-----5-----------------| 


   ~~~~~~~~~~~~~~~~~~                           ~~~~~~~~~~~~~~~ 
                                        |-3-| 
   Q       Q       Q       E S  S   E   E   S S E.   +Q      Q 
|---------------------------------|---------------------------------|| 
|-10------10------10------10s5s12s|=5\------8-8-8----(8)-----8------|| 
|---------------------------------|-----9---------------------------|| 
|---------------------------------|---------------------------------|| 
|---------------------------------|---------------------------------|| 
|---------------------------------|---------------------------------|| 
| 
|  s E  S  s E  S  s E  S  e E      e   S S   S S  E  S  E S e e 
|--9----9--9----9--9----9--9------|---------------------------------|| 
|-10---10-10---10-10---10-10------|-x--/8-8---8-8-----8----8-8-8----|| 
|--9----9--9----9--9----9--9------|-x--/7-7---7-7-----7----7-7-7----|| 
|---------------------------------|-x--/6-6---6-6-----6----6-6-6----|| 
|---------------------------------|----/7-7---7-7-----7----7-7-7----|| 
|---------------------------------|---------------------------------|| 


 Verse 1 
   s E  S  s E  S  s E  S  e e   s E S s E S E S S e e 
|--9----9--9----9--9----9--9-7-|-5---5-5---5-5-----5-7-| 
|-10---10-10---10-10---10-10-7-|-5---5-5---5-5---5-5-7-| 
|--9----9--9----9--9----9--9-7-|-6---6-6---6-6-6-6-6-7-| 
|------------------------------|-------------7-7-------| 
|------------------------------|-----------------------| 
|------------------------------|-----------------------| 
|-Rhy Fig 1 


   H               Q          E.      +S    S S E   S E   S S S E   S S E 
|-----------------------------------------|-5---------------------------8---| 
|------------------8b10-------8pb10r==(8)-|---8-5---------5-5h8p5---8p5-----| 
|-----------------------------------------|---------x-7b9-------------------| 
|-----------------------------------------|---------------------------------| 
|-----------------------------------------|---------------------------------| 
|-----------------------------------------|---------------------------------| 
| 
|  s E  S  s E  S  s    E  S  e     e       s E   S s E   S s E   S e   e 
|--9----9--9----9--9-------9--9-----7-----|-5-----5-5-----5-5-----5-5---7---| 
|-10---10-10---10-10------10-10-----7-----|-5-----5-5-----5-5-----5-5---7---| 
|--9----9--9----9--9-------9--9-----7-----|-6-----6-6-----6-6-----6-6---7---| 
|-----------------------------------------|---------------------------------| 
|-----------------------------------------|---------------------------------| 
|-----------------------------------------|---------------------------------| 


   Q       Q           H               W 
|--5-------8b8.5--------------------|-----------------------------| 
|-----------------------------------|-----------------------------| 
|-----------------------------------|-----------------------------| 
|-----------------------------------|-----------------------------| 
|-----------------------------------|-----------------------------| 
|-----------------------------------|-----------------------------| 
| 
|  s E  S  s     E  S  s E  S  e  e    s E  S  s E  S  s E  S e e 
|-14---14-14-------14-14---14-14-12-|-10---10-10---10-10---10-5-7-| 
|-15---15-15-------15-15---15-15-12-|-10---10-10---10-10---10-5-7-| 
|-14---14-14-------14-14---14-14-12-|-11---11-11---11-11---11-6-7-| 
|-----------------------------------|-----------------------------| 
|-----------------------------------|-----------------------------| 
|-----------------------------------|-----------------------------| 
                                                    end Rhy Fig 1-| 

                                       ~~ 
                                                               |--3--| 
   Q       H                  Q        Q      +Q       E   E   E E   E 
|---------10b12---------------8b9---|-------------------------------------| 
|-----------------------------------|-10-----(10)\-------------5h8---5----| 
|-----------------------------------|----------------------x--------------| 
|-----------------------------------|----------------------x--------------| 
|-----------------------------------|----------------------x--------------| 
|-----------------------------------|-------------------------------------| 
| 
|  s E  S  s    E  S  s E  S  e   e    s E S   s   E S s E   S e   e 
|--9----9--9-------9--9----9--9---7-|--5---5---5-----5-5-----5-5---7------| 
|-10---10-10------10-10---10-10---7-|--5---5---5-----5-5-----5-5---7------| 
|--9----9--9-------9--9----9--9---7-|--6---6---6-----6-6-----6-6---7------| 
|-----------------------------------|-------------------------------------| 
|-----------------------------------|-------------------------------------| 
|-----------------------------------|-------------------------------------| 


                                      ~~~ 
  +Q    Q     Q   E    E       +Q    +H          +Q 
|----------------------------|---------------------------| 
|-(5)-------------8b12-8b10==|=(8)---(8)---------(8)r\---| 
|----------------------------|---------------------------| 
|----------------------------|---------------------------| 
|----------------------------|---------------------------| 
|----------------------------|---------------------------| 
| 
|  PM-|       PM|               PM-| 
|  E  E E S S E E E    E        E  E  E  S S E E  E    E 
|----------------------------|--------8----x-8----8------| 
|-------9---x-----9----------|--------7----x-7----7----x-| 
|-------9---x-----9----------|--------7----x-7----7----x-| 
|-------9---x-----9----------|--------7----x-7----7----x-| 
|----------------------------|---------------------------| 
|--7--7-------7-7------------|--5--5-----------5---------| 



  Q   E    S S     S E     S S S e   e e H             E E 
|----------------------------------|-----------------------|| 
|-----8b10---8pb10---------5-8p5---|-------------------x---|| 
|--------------------7b9---------5-|-7-5-7b9-----------x---|| 
|----------------------------------|-----------------------|| 
|----------------------------------|-----------------------|| 
|----------------------------------|-----------------------|| 
| 
| PM|                                              PM 
| E E E    S S     e     E   e   E   E E S   S E e S S E E 
|-----5------5-----x---------5-----|-----------------------|| 
|-----5------5-----x---------5-----|---8-8---8---8-----8---|| 
|-----6------6-----x---------6-----|-x-7-7---7---7---7-7-x-|| 
|----------------------------------|-x-6-6---6---6---6-6-x-|| 
|-0-0--------------------0---------|-x-7-7---7---7---7-7-x-|| 
|----------------------------------|---------------7-------|| 


 Verse 3 
  H           E S  S  Q      E.       +S   Q     H 
|-------------------------|--------------------------------| 
|--------------------10---|-12b14====(12)r-----------------| 
|---------------9s11------|--------------------------------| 
|-------------------------|--------------------------------| 
|-------------------------|--------------------------------| 
|-------------------------|--------------------------------| 
| 
| e S S e S S e S  S  e e    e     S   S   e S S e S S e E 
|-5-x-x-5-x-x-5-x--x--5-2-|--0-----x---x---0-x-x-0-x-x-0-x-| 
|-5-x-x-5-x-x-5-x--x--5-3-|--2-----x---x---2-x-x-2-x-x-2-x-| 
|-6-x-x-6-x-x-6-x--x--6---|--2-----x---x---2-x-x-2-x-x-2-x-| 
|-------------------------|--------------------------------| 
|-------------------------|--------------------------------| 
|-------------------------|--------------------------------| 


                                                                   ~~~~~~~ 
  Q       Q      +E       +E      s E    s   S  S  E    S  E    a  S  +Q      Q 
|--------------------------------10--------|---------------------------------------| 
|-------/12-----(12)b14==(12)r----------13-|---12p10------10---12s14-(14)----------| 
|------------------------------------------|-----------11--------------------------| 
|------------------------------------------|---------------------------------------| 
|------------------------------------------|---------------------------------------| 
|------------------------------------------|---------------------------------------| 
| 
| e S S   e S S   e        S   S  e   e      e     S S  e    S     S   e  S S e E 
|-5-x-x---5-x-x---5--------x---x--5---2----|-0-----x-x--0----x-----x---0--x-x-0-x--| 
|-5-x-x---5-x-x---5--------x---x--5---3----|-2-----x-x--2----x-----x---2--x-x-2-x--| 
|-6-x-x---6-x-x---6--------x---x--6--------|-2-----x-x--2----x-----x---2--x-x-2-x--| 
|------------------------------------------|---------------------------------------| 
|------------------------------------------|---------------------------------------| 
|------------------------------------------|---------------------------------------| 


                                                   ~~~~~~~~~~~~~~~~~~~ 
                                           |-3--| 
   H             E.    S      +Q       +E  E    S  H             +E   E 
|---------------------10b11==(10)r==|=(10)-8----------------------------| 
|-----------------------------------|----------10-10------------(10)\---| 
|-----------------------------------|-----------------------------------| 
|-----------------------------------|-----------------------------------| 
|-----------------------------------|-----------------------------------| 
|-----------------------------------|-----------------------------------| 
| 
|  e S S  e S S  e  S  S       e  e     e  S S     e S S  e S S   e   E 
|-10-x-x-10-x-x-10--x--x------10----|--10--x-x----10-x-x-10-x-x--10---x-| 
|-13-x-x-13-x-x-13--x--x------13--8-|---7--x-x-----7-x-x--7-x-x---7---x-| 
|-11-x-x-11-x-x-11--x--x------11--9-|---7--x-x-----7-x-x--7-x-x---7---x-| 
|-----------------------------------|-----------------------------------| 
|-----------------------------------|-----------------------------------| 
|-----------------------------------|-----------------------------------| 


           ~~~~~ 
   Q       H                  S S S S   e   E   E   E   E   e   Q 
|-----------------------------5-------|-----------------5---5-------| 
|----------8b10-----------------8p5---|-5-----------5---------------| 
|-----------------------------------7-|-----5s==6-------------------| 
|-------------------------------------|-----------------------------| 
|-------------------------------------|-----------------------------| 
|-------------------------------------|-----------------------------| 
| 
|  s E  S  s    E  S  s E  S  e   e     s E   S s E   S s E   S e E 
|--9----9--9-------9--9----9--9---7---|-5-----5-5-----5-5-----5-5-x-| 
|-10---10-10------10-10---10-10---7---|-5-----5-5-----5-5-----5-5-x-| 
|--9----9--9-------9--9----9--9---7---|-6-----6-6-----6-6-----6-6-x-| 
|-------------------------------------|-----------------------------| 
|-------------------------------------|-----------------------------| 
|-------------------------------------|-----------------------------| 


                                      ~~ 
                              |-3--| 
  W                     a E E Q    E  E    +S   S Q 
|---------------------|-------8-----------------------| 
|---------------------|-----8-----10-10---(10)s17-----| 
|---------------------|-7s9---------------------------| 
|---------------------|-------------------------------| 
|---------------------|-------------------------------| 
|---------------------|-------------------------------| 
| 
| E e s E S s E S e e     E e e E     s E       S e e 
|---7-7---x-7---7-7-7-|-----5-5-------5---------5-5-5-| 
|---9-9---x-7---7-7-7-|-----7-7-------7---------7-7-7-| 
|---9-9---x-9---9-9-9-|-----7-7-------7---------7-7-7-| 
|---------------------|-------------------------------| 
|---------------------|-------------------------------| 
|---------------------|-------------------------------| 


                    ~~~~                      ~~ 
  E.   S     +Q    +Q       S     +S  S S   S E.   e   E E E   E E 
|-------------------------------------5---|--------------------5----|| 
|------8b10==(8)---(8)r-----8pb10r(8)---8-|-5-5s==17-------5-----5--|| 
|-----------------------------------------|-------------------------|| 
|-----------------------------------------|-------------------------|| 
|-----------------------------------------|-------------------------|| 
|-----------------------------------------|-------------------------|| 
| 
| E  e        e  E  s   E S e         e     E   e  s s E e s s e e 
|-x---------------------------------------|-------------------------|| 
|-x--5--------5--x--5-----5-5---------5---|-----8--8-8---8-8-8-8-8--|| 
|-x--6--------6--x--6-----6-6---------6---|-----7--7-7---7-7-7-7-7--|| 
|----5--------5--x--5-----5-5---------5---|-----6--6-6---6-6-6-6-6--|| 
|-----------------------------------------|-----7--7-7---7-7-7-7-7--|| 
|-----------------------------------------|-------------------------|| 



 Guitar Solo 
  Gtr II  
      A7add2 
  E   S S S    S E  S  E     S  E e  
      | | |    |    |        |    | |-repeat Rhy pattern x7 (replacing chord where indicated) 
      / / /    /    /        /    /  
  Gtr I 
                                                                 |-3-| 
  Q       Q        +E    +E     e E   Q     E.        S  S E.    S S S E 
|-7b9-----7b9======(7)r==(7)s==15---|-------7b10======7r---7b8---5h7p5---| 
|-----------------------------------|----------------------------------7-| 
|-----------------------------------|------------------------------------| 
|-----------------------------------|------------------------------------| 
|-----------------------------------|------------------------------------| 
|-----------------------------------|------------------------------------| 


                 ~~ 
                                                         |3| 
  e E   e   e a  Q      +Q       E   E   E   E  E   E    E Q 
|-5-----5---5------------------|---------8---9-10p==9---10p9------| 
|---5---------8s10-----(10)\---|---/10----------------------------| 
|------------------------------|----------------------------------| 
|------------------------------|----------------------------------| 
|------------------------------|----------------------------------| 
|------------------------------|----------------------------------| 
  
  
  D9 
                      ~~ 
   E    E   E      S  S  +Q       e E   E  Q.             +E     +E     E  E 
|-10b12-----8b9-----------------------|---12b14==========(12)r==(12)---10----| 
|-----------------10-10-(10)s====19---|-----------------------------------13-| 
|-------------------------------------|--------------------------------------| 
|-------------------------------------|--------------------------------------| 
|-------------------------------------|--------------------------------------| 
|-------------------------------------|--------------------------------------| 


     A7add2 
                ~~~~~~~~~~~ 
   E  E    E    E      +Q       +e    E   E   E    E    E  E    E    E  S  S 
|---------------------------------------|---------12---14-15---12---14-15p14---| 
|-10------10---12b14==(12)-----(12)r\---|---/14--------------------------------| 
|----11---------------------------------|--------------------------------------| 
|---------------------------------------|--------------------------------------| 
|---------------------------------------|--------------------------------------| 
|---------------------------------------|--------------------------------------| 


    E9                                          D9 
  E  e     S S e   E  S  S  E    e      E       e    S  S e    E        S  S  E  e 
     |     | | |   |  |  |       |              |    |  | |    |        |  |     | 
     /     / / /   /  x  /       /              /    /  / /    /        x  /     / 
     ~~~~~~~~~~~~~~~~~ 
  E  Q.           +E.    S  S  S S  S   S  S    S  S S  S S  S S  S     S  S  e  E 
|---15b17========(15)---15r---15---12-|--------------------------------------------| 
|-------------------------------------|---15b17---15---13---15---15pb16---15p13-15-| 
|-------------------------------------|--------------------------------------------| 
|-------------------------------------|--------------------------------------------| 
|-------------------------------------|--------------------------------------------| 
|-------------------------------------|--------------------------------------------| 


     A7add2                                         E7+9 
   E  e  S          S    e    E    S  S E    e    E E     S S  E  e   S   S E e 
      |  |          |    |    |    |  |      |      |     | |  |  |   |   |   | 
      /  /          /    /    /    x  /      /      /     / /  x  /   /   /   x 
         |------3------| 
   e  e  S      +S     S S  S S  S S  S S  S E    E.   S  E    E  E  +E     Q 
|----------------------------------------------|-----------------------------------|| 
|-15-13-15pb16r(15)p==13---15---13---15---13---|-15p==13---------------------------|| 
|----------------------------------------------|---------14------------------------|| 
|----------------------------------------------|--------------14-14-(14)\----------|| 
|----------------------------------------------|-----------------------------------|| 
|----------------------------------------------|-----------------------------------|| 
          A 
   E      e e e s E s   E       e       E  e e  e   s        E   s   E  e 
   |      | | | |   |           |       |  | |  |   |            |      | 
   x      / / / /   /           /       x  / /  /   /            /      / 
                                        ~~~ 
                        |----3-----| 
   H.                  +E   +E     E    Q.      E  +E.          +S   E  e 
|------------------------------------|------------------------------------| 
|------------------------------------|---------13-(13)b13.5====(13)r---15-| 
|-14pb15==============(14)r(14)p==12-|-14---------------------------------| 
|------------------------------------|------------------------------------| 
|------------------------------------|------------------------------------| 
|------------------------------------|------------------------------------| 


  E e          e  e   s   E s E  e             E  e  e e  s E s E e 
  | |          |  |   |     |    |             |  |  | |  |   |   | 
  x /          /  /   /     /    /             x  /  / /  /   /   / 
                                                  ~~~~~ 
  |-3--| 
  Q    E      +Q     +Q.         S      +S     E  E  Q    E.  S Q 
|-------------------------------------------|-----------------------| 
|-----15b17==(15)---(15)r-------15pb17r(15)p|=13---------13s==7-----| 
|-------------------------------------------|----14-14--------------| 
|-------------------------------------------|-----------------------| 
|-------------------------------------------|-----------------------| 
|-------------------------------------------|-----------------------| 


    D7 
  E e e e  s  E s  E e 
    | | |  |    |    |  |-repeat Rhy pattern x5 (replacing chord where indicated) 
    / / /  /    /    / 
                   ~~~~~~~~~~~~ 
  Q   q    E.   S  Q      +S  S   E e  e e    e   e  e 
|-----x---10----8------|------------8-10-8---10---8-10-| 
|-----x-----------10---|-(10)s7-/10--------------------| 
|----------------------|-------------------------------| 
|----------------------|-------------------------------| 
|----------------------|-------------------------------| 
|----------------------|-------------------------------| 
       
			 
			  A 
                                                                         ~~ 
                                                              |---3---| 
   E     +S  S  E E    +E      E    S      +S  E    E    S  S E  E    E  Q     E.  S 
|-10b12r(10)-8-10-8b9==(8)r---10---10pb12r(10)p9-|-10b12---10p8----------------8s==2--| 
|------------------------------------------------|--------------10---10-10------------| 
|------------------------------------------------|------------------------------------| 
|------------------------------------------------|------------------------------------| 
|------------------------------------------------|------------------------------------| 
|------------------------------------------------|------------------------------------| 


  E7                                                 D7 
                                                         |--3--| 
  E E    +s   S    +E   E     S S     +E   E     E   +E  E E   E S S E     S S S S 
|---7b8==(7)r-7b8==(7)r-7b8-----7b10==(7)r-7b9-|-7b9r(7)-5-------------------------| 
|----------------------------------------------|-----------8p==5---------------7-7-| 
|----------------------------------------------|-----------------8s7-7b8---7p5-----| 
|----------------------------------------------|-----------------------------------| 
|----------------------------------------------|-----------------------------------| 
|----------------------------------------------|-----------------------------------| 


    A                             E7+9 
  E e e     e s E   s E   e     E  S S S S e S S S S  E    e 
    | |     | |     |     |        | | | | | | | | |       | 
    / /     / /     /     /        / / / / / / / / /       / 
  ~ 
  Q   E a a E E   E   S S S S   E  e   e   e S S S S +S  S E 
|-----------5-----------------|--------------------5-(5)---5----|| 
|-----------5-8---5-----5---5-|---/5---5---5-5---5-------5------|| 
|-5-------x-----------8---8---|----------------8----------------|| 
|-------x---------------------|---------------------------------|| 
|-----0-----------------------|---------------------------------|| 
|-----------------------------|---------------------------------|| 


     A7 
   E e e   e e S s E e 
     | |   | | | |   | |-repeat Rhy pattern x9 (replacing chord where indicated) 
     / /   / / x /   / 
   Q   Q     H           Q   E.    S      +E.    S  Q 
|------8b9-------------|----------10b12==(10)r---x-10pb12====| 
|-10-------------------|-------------------------------------| 
|----------------------|-------------------------------------| 
|----------------------|-------------------------------------| 
|----------------------|-------------------------------------| 
|----------------------|-------------------------------------| 



                                  ~~~~~~~~~~~~~~ 
   +W                     +Q     +Q      E.        S   Q 
|-(10)-----------------|-(10)---(10)r---10pb12====10r-10pb11.5====| 
|----------------------|------------------------------------------| 
|----------------------|------------------------------------------| 
|----------------------|------------------------------------------| 
|----------------------|------------------------------------------| 
|----------------------|------------------------------------------| 


       D7(type 2) 
                                        ~~~~~~~~~~~~~~ 
   +H         +H             +S   S  S  S  +Q     +Q.       E 
|-(10)r======(10)---------|-(10)-----8----------------------8-| 
|-------------------------|------(8)---10-(10)---(10)---------| 
|-------------------------|-----------------------------------| 
|-------------------------|-----------------------------------| 
|-------------------------|-----------------------------------| 
|-------------------------|-----------------------------------| 


         A7 
                                  ~~~~ 
  +H.                +Q      +E  +Q     E   e  E   E S S 
|-(8)b9==============(8)---|-(8)-(8)r----------------x-5--| 
|--------------------------|--------------/(7)-5---7------| 
|--------------------------|------------x-----------------| 
|--------------------------|------------------------------| 
|--------------------------|------------------------------| 
|--------------------------|------------------------------| 


      E7(type 2)                    D7(type 2) 
  Q     Q     Q       Q        Q      Q      S    +S   E        +E   a  S S 
|-8b9---8b9---8b9-----8b10---|-8b10---8b10---8b10r(8)-10b12====(10)r-8h10p8-| 
|----------------------------|----------------------------------------------| 
|----------------------------|----------------------------------------------| 
|----------------------------|----------------------------------------------| 
|----------------------------|----------------------------------------------| 
|----------------------------|----------------------------------------------| 


       A7(type 2)                 E7+9 
   E   e     e e  e S s  E  e   E  S S S S E e S S e e 
       |     | |  | | |     |   |  | | | | | | | | | | 
       /     / /  / x /     /   x  / / / / x / / / / / 
             ~~~~~~~                         ~ 
   |--3---| 
   E E    E  Q    Q      E  E   E  E   S S E H 
|----8------------------------|------------------------|| 
|-10-----10-10---10-----10\---|----------x-8-8---------|| 
|-----------------------------|---/4s==9---------------|| 
|-----------------------------|------------------------|| 
|-----------------------------|------------------------|| 
|-----------------------------|------------------------|| 


 Verse 3 
 w/Rhy Fig 1 
|------------------------------|-----------------------| 


                                                        ~~~~ 
                             |--3---| 
   Q       E.    S    +S   S S S    S  E E       +E    +Q         S s Q     e e 
|----------------------------5-----------------|--------------------5-------5----| 
|--------------------------5---8p===5----8b10==|=(8)---(8)r-------5-----------5--| 
|----------------7b9==(7)r---------------------|---------------------------------| 
|----------------------------------------------|---------------------------------| 
|----------------------------------------------|---------------------------------| 
|----------------------------------------------|---------------------------------| 


                                    ~~~~~~~~~~~ 
   Q       E   S    +S  +S  S E     Q      +Q       +E     E     H 
|----------------------------------------|----------------------------------| 
|----------------------------------------|----------------------------------| 
|--------------7b8==(7)r(7)p5-------5----|-(5)------(5)/--------------------| 
|-----------------------------7----------|----------------------------------| 
|----------------------------------------|----------------------------------| 
|----------------------------------------|----------------------------------| 


                                              ~ 
  Q     E.   S    +Q        +S  S E   S S E   H           q 
|-----------------------------------|-------------------------| 
|-----------------------------------|---------5-----------x---| 
|------------4b5==(4)r======(4)p2---|-2-4s6---------------x---| 
|---------------------------------4-|-------------------------| 
|-----------------------------------|-------------------------| 
|-----------------------------------|-------------------------| 
| 
| S E S S  E S     S  S S S  e    e   S E   S S E S S E S e E 
|-5---5-5----5-----5----x-5--5----7-|-9-----9-9---9-9---9-9---| 
|-5---5-5----5-----5----x-5--5----7-|-8-----8-8---8-8---8-8---| 
|-6---6-6----6-----6----x-6--6----7-|-9-----9-9---9-9---9-9---| 
|-----------------------------------|-------------------------| 
|-----------------------------------|-------------------------| 
|-----------------------------------|-------------------------| 


  Gtr II 
    E9                   D9 
  E e e E S E S e e   E  e        e E  S  E S e  e 
    | |   |   | | |      |        |    |    | |  | 
    / /   /   / / /      /        /    /    / /  / 
  Gtr I 
  W                   E.   S      Q   +Q.       +e 
|-------------------|-------------------------------| 
|-------------------|------8pb10==8---(8)r======(8)-| 
|-------------------|-------------------------------| 
|-------------------|-------------------------------| 
|-------------------|-------------------------------| 
|-------------------|-------------------------------| 


    A7add2                           E7+9 
  E e e  S   S       e   S S e e   E  S  S  S  S  E  S S S S   e   e 
    | |      |       |   | | | |      |  |  |  |  |  |   | |   |   | 
    / /      x       /   x / / /      /  /  /  /  x  /   x /   /   / 
                                                     ~~ 
  Q   E.     S      +Q.        E   E  S  S  S  S  E  Q        +E   E 
|--------------------------------|-------------------------------------|| 
|----------/12b14==(12)r---------|---12p10----10----10-------(10)\-----|| 
|--------------------------------|---------11----11--------------------|| 
|--------------------------------|-------------------------------------|| 
|--------------------------------|-------------------------------------|| 
|--------------------------------|-------------------------------------|| 


 Verse 4 
    A7add2 
  E E +S S e S S S S e  e         E  S S   S  S e S S S S e e 
    |  | | | |   | | |  |            | |   |  | | |   | | | | 
    /  / / / /   x / /  /            / /   /  / / /   x / / / 
  H          Q       E  E        +Q       +E    E H 
|-----------------------------|-------------------------------| 
|----------------------19b20==|=(19)r====(19)-----------------| 
|----------------------19b20==|=(19)r====(19)-----------------| 
|-----------------------------|-------------------------------| 
|-----------------------------|-------------------------------| 
|-----------------------------|-------------------------------| 


    A7(type 3)               A 
  E S S S S e  S     S S S E e 
    | | | | |  |       | |   | 
    / / / / /  /       x /   / 
  H            H 
|-------------------------------| 
|-------------20b22=============| 
|-------------------------------| 
|-------------------------------| 
|-------------------------------| 
|-------------------------------| 


        A7(type 3) 
    E    S     S  S    S e  S    S  S S  e e 
         |     |  |    | |  |       | |  | | 
         /     /  /    / /  /       x /  / / 
    ~~~~~                                ~~~ 
   +E    E        E      E  E       E    Q 
|--------------------------------------------| 
|-(20)r-20pb22---20b22-----13b14-------------| 
|----------------------------------14---14s==| 
|--------------------------------------------| 
|--------------------------------------------| 
|--------------------------------------------| 

     D7 
  E  S S S S e S  S  S     S  e     e 
     | | | | | |     |     |  |     | |-repeat Rhy pattern x5 (replacing chord where indicated) 
     / / / / / /     x     /  /     / 
                                                                 ~~ 
  Q      Q     S  S  S     S  S  S  E   E  S     +S   S  S S  S  Q       Q 
|----------------------------17-------|--------------------------------------| 
|-------------------------17----20p17-|--------------------------------------| 
|-5/-------------19-19b21-------------|---19b21r(19)p17----------------------| 
|-------------------------------------|-----------------19---16-19-----------| 
|-------------------------------------|--------------------------------------| 
|-------------------------------------|--------------------------------------| 


    A7(type 3)                        A 
                          ~~~~~~~~~~~~ 
  Q     E    E      +S    E.      +Q 
|-----------20b22==(20)r-20------(20)---| 
|---------------------------------------| 
|---------------------------------------| 
|---------------------------------------| 
|---------------------------------------| 
|---------------------------------------| 


        A7(type 3)                              E9 
   S  S  S  S  S  E.    Q           E     E   H           E     E    E  E 
|-17----------------------------------------|----------------------------------| 
|----20p17----17-------20b22-------20pb22---|-----------------------20-22b24===| 
|----------20----19-------------------------|-----------------/21--------------| 
|-------------------------------------------|----------------------------------| 
|-------------------------------------------|----------------------------------| 
|-------------------------------------------|----------------------------------| 

       D9 
   +E   +E     S  S  E      a       +Q          Q 
|---------------------------------------------------| 
|-(22)r(22)---20----20b22r(20)b22==(20)r\-----------| 
|----------------21---------------------------------| 
|---------------------------------------------------| 
|---------------------------------------------------| 
|---------------------------------------------------| 


      A7(type 3)                         E7+9 
  E    S S  S S e   S  S S S   e   e   E  e    S  S e e S S e E 
       | |  | | |   |    | |   |   |      |    |  | | | | | | | 
       / /  / / /   /    x /   /   /      /    /  / x / / / / x 
                    ~~~~                    ~~~~~~~~~~~~ 
  S S  E    Q      +Q         +E   E   E  S S +Q      H 
|------------------------------------|---------------------------| 
|-----10---10-----(10)-------(10)\---|------8-(8)-----8----------| 
|---9--------------------------------|---/9----------------------| 
|------------------------------------|---------------------------| 
|------------------------------------|---------------------------| 
|------------------------------------|---------------------------| 


|-repeat previous Rhy pattern x3 
   ~~~ 
  +Q    E    E  E S  S  +E  E 
|-----------15-15-x-15-(15)s3/-| 
|-(8)-------15-15-x-15-(15)s3/-| 
|------------------------------| 
|------------------------------| 
|------------------------------| 
|------------------------------| 



  E  E  S  S E  E S  S  +E  E   E  E  S  S E  E S  S  +E  E 
|---15-15-15---15-x-15-(15)s3-|---15-15-15---15-x-15-(15)---|| 
|---15-15-15---15-x-15-(15)s3-|---15-15-15---15-x-15-(15)---|| 
|-----------------------------|-----------------------------|| 
|-----------------------------|-----------------------------|| 
|-----------------------------|-----------------------------|| 
|-----------------------------|-----------------------------|| 


 Sax Solo 
  Gtr Gtr II 
   H           H             E e S S E S S S S +E  e 
|--------------------------|-------------------------| 
|-17\--5-5-5---5---5-(5)-x-|---5-5-5---5---5-7-(7)-5-| 
|------5-5-5---5---5-(5)-x-|---5-5-5---5---5-7-(7)-5-| 
|--------------------------|-------------------------| 
|--------------------------|-------------------------| 
|--------------------------|-------------------------| 
   E   e S S E S E S +E  E 


  E e S S E S S S S +E  e   E e S S E S S S S +E  e 
|-------------------------|---------------------------| 
|---5-5-5---5---5-7-(7)-5-|---5-5-5---5---5-7-(7)-5---| 
|---5-5-5---5---5-7-(7)-5-|---5-5-5---5---5-7-(7)-5---| 
|-------------------------|---------------------------| 
|-------------------------|---------------------------| 
|-------------------------|---------------------------| 


    E e S S E S S S S +E  e 
||--------------------------| 
||o---5-5-5---5---5-7-(7)-5-| 
||----5-5-5---5---5-7-(7)-5-| 
||--------------------------| 
||o-------------------------| 
||--------------------------| 


  E e S S E S S S S +E  e   E e S S E S S S S +E  e 
|-------------------------|--------------------------| 
|---5-5-5---5---5-7-(7)-5-|---5-5-5---5---5-7-(7)-5--| 
|---5-5-5---5---5-7-(7)-5-|---5-5-5---5---5-7-(7)-5--| 
|-------------------------|--------------------------| 
|-------------------------|--------------------------| 
|-------------------------|--------------------------| 


  1.                          2. 
  E e S S E S S S S +E  e      E E S S E e E Q     Q   Q   Q   Q 
|--------------------------||-------------------|-12--12--12--12---|| 
|---5-5-5---5---5-7-(7)-5-o||----5-5-5---5------|-12--12--12--12---|| 
|---5-5-5---5---5-7-(7)-5--||----5-5-5---5------|-13--13--13--13---|| 
|--------------------------||-------------------|------------------|| 
|-------------------------o||-------------------|------------------|| 
|--------------------------||-------------------|------------------|| 


 Verse 5 
   Gtr II 
    A7(type 4)      G#7   A7(type 4)      G#7   A7(type 4)      G#7 
  E e S S e S E S E e   E e S S e S E S E e   E e S S e S E S E e 
    |   | | |   |   |     |   | | |   |   |     |   | | |   |   | 
    /   / / /   /   /     /   / / /   /   /     /   / / /   /   / 
|---------------------|---------------------|---------------------| 


    A7(type 4)      G#7   D 
  E e S S e S E S E e   E S S S S E S E S E E 
    |   | | |   |   |     | | | |   |   |   | 
    /   / / /   /   /     / / / /   /   /   / 
|---------------------|-----------------------| 


    D                       A                 DV 
  E S S S S E S E S E E   E S S S S E S E S E E 
    | | | |   |   |   |     | | | |   |   |   | 
    / / / /   /   /   /     / / / /   /   /   / 
|-----------------------|-----------------------| 


    AIX                     E9 
  E S S S S E S E S E E   E e e E S E S E e 
    | | | |   |   |   |     | |   |   |   | 
    / / / /   /   /   x     / /   /   /   / 
|-----------------------|-------------------| 


    D9                  A7add2 
  E e e E S E S E e   E e S S e S E S e e 
    | |   |   |   |     | | | | |   | | | 
    / /   /   /   /     / / / / /   / / / 
|-------------------|----------------------| 


    E7+9 
  E S S S S E S E S e e   E S S S S E S E S e e 
    | | | |   |   | | |     | | | |   |   | | | 
    / / / /   /   / / /     / / / /   /   / / / 
|-----------------------|-----------------------| 


A13 
  E S S S S E e E q    H    H 
    | | | |   | |      | 
    / / / /   / x      / 
  W                    W 
|--------------------|-----------*| 


	  

Full key step upFull key step up
Half key step upHalf key step up
Half key step downHalf key step down
Full key step downFull key step down