Elbow

The River

Elbow

tabs

by  VICTBORGES

save to print version add songbook text version e-mail correct tuner
chordsukulelecavacokeyboardtabbassdrumsharmonicaflute Guitar Pro
close

there isn't a video lesson for this song

chords

The River

	  		


Intro: 

  Bm/D  Em/G  Dmaj7  Amaj7          Dmaj7  Amaj7              (harm.) 
e|---------0---------------------------------------------------------| 
B|---0---------------------------------------------------------9-----| 
G|-------4-------6---------------------6-----------------------------| 
D|-4-----5-----4-------6-------------4-------6-----------------------| 
A|-5-----------5-----4---------------5-----4-------------------------| 
E|-------------------5---------------------5-------------------------| 

  Bm/D  Em/G  Dmaj7  Amaj7        Dmaj7  Amaj7        Dmaj7  Amaj7 
e|---------0----------------------------------------------------4----------------------| 
B|---0--------------------------------------------------------2------------------------| 
G|-------4-------6-------------------6--------------------6---2------------------------| 
D|-4-----5-----4-------6-----------4-------6------------4------------------------------| 
A|-5-----------5-----4-------------5-----4--------------5------------------------------| 
E|-------------------5-------------------5---------------------------------------------| 

Verse: 

  Em/G      C               A         D          E 
        "I walked with the river in a kind of a dream..." 
e|----0-----0--------------------------------------------------------------| 
B|-------------3------------2--------------------0-----0-----0-------------| 
G|-4--------5------------------2------2----------1-----1-----1-------------| 
D|-5------------------------2------------4-------2-----2-----2-------------| 
A|------------------------------------5------------------------------------| 
E|-------------------------------------------------------------------------| 

  Em/G       C             A           D         E 
 "...hand in hand with the all-knowing river in me..." 
e|----0------0-------------------------------------------------------------| 
B|--------------3----------2---------------------0-----0-----0-------------| 
G|-4---------5----------------2--------2---------1-----1-----1-------------| 
D|-5-----------------------2--------------4------2-----2-----2-------------| 
A|-------------------------------------5-----------------------------------| 
E|-------------------------------------------------------------------------| 

  Em/G          C          A        D         E 
    "...to the clamour of rushes         and deeply bowing trees..." 
e|----0---------0-----------------------------------------------------------------| 
B|-----------------3-------2------------------0------0-----------0----------------| 
G|-4------------5-------------2-----2---------1------1-----------1----------------| 
D|-5-----------------------2-----------4------2------2-----------2----------------| 
A|----------------------------------5---------------------------------------------| 
E|--------------------------------------------------------------------------------| 

  Em/G       C            A            D            E 
    "...and drunk making blossom that blushed to be seen" 
e|----0------0-------------------------------------------------------------------------| 
B|--------------3---------2-------------------------0-----0-----0----------------------| 
G|-4---------5---------------2---------2------------1-----1-----1----------------------| 
D|-5----------------------2---------------4---------2-----2-----2----------------------| 
A|-------------------------------------5-----------------------------------------------| 
E|--------------------------------------------------------------0----------------------| 

Instrumental: 

  Bm/D  Em/G  Dmaj7  Amaj7        Dmaj7  Amaj7        Dmaj7  Amaj7 
e|---------0----------------------------------------------------4----------------------| 
B|---0--------------------------------------------------------2------------------------| 
G|-------4-------6-------------------6--------------------6---2------------------------| 
D|-4-----5-----4-------6-----------4-------6------------4------------------------------| 
A|-5-----------5-----4-------------5-----4--------------5------------------------------| 
E|-------------------5-------------------5---------------------------------------------| 

Verse: 

  Em/G      C           A          D            E 
        "I told him my sorrows and broken-down dreams..." 
e|----0-----0-------------------------------------------------------------| 
B|-------------3--------2-----------------------0-----0-----0-------------| 
G|-4--------5--------------2-------2------------1-----1-----1-------------| 
D|-5--------------------2-------------4---------2-----2-----2-------------| 
A|---------------------------------5--------------------------------------| 
E|------------------------------------------------------------------------| 

  Em/G       C             A        D            E 
      "...confessed every lie,    replayed every scene..." 
e|----0------0-------------------------------------------------------------| 
B|--------------3----------2---------------------0-----0-----0-------------| 
G|-4---------5----------------2-----2------------1-----1-----1-------------| 
D|-5-----------------------2-----------4---------2-----2-----2-------------| 
A|----------------------------------5--------------------------------------| 
E|-------------------------------------------------------------------------| 

  Em/G       C       A         D           E 
      "...he openly wept as he listened to me..." 
e|----0------0----------------------------------------------------------| 
B|--------------3----2---------------------0-----0-----0----------------| 
G|-4---------5----------2------2-----------1-----1-----1----------------| 
D|-5-----------------2------------4--------2-----2-----2----------------| 
A|-----------------------------5----------------------------------------| 
E|----------------------------------------------------------------------| 

       Em/G            C          A         D            E 
"...and then, with the sun in the west, he showed me the sea" 
e|---------0-----------0--------------------------------------------------------------------| 
B|------------------------3-------2----------------------0-----0-----0----------------------| 
G|------4--------------5-------------2------2------------1-----1-----1----------------------| 
D|------5-------------------------2------------4---------2-----2-----2----------------------| 
A|------------------------------------------5-----------------------------------------------| 
E|-------------------------------------------------------------------0----------------------| 

Outro: 

  Bm/D  Em/G  Dmaj7  Amaj7          Dmaj7  Amaj7 
e|---------0---------------------------------------------------------| 
B|---0---------------------------------------------------------------| 
G|-------4-------6---------------------6-----------------------------| 
D|-4-----5-----4-------6-------------4-------6-----------------------| 
A|-5-----------5-----4---------------5-----4-------------------------| 
E|-------------------5---------------------5-------------------------| 

  Bm/D  Em/G  Dmaj7  Amaj7        Dmaj7  Amaj7    (harm.) Dmaj7  Amaj7 
e|---------0--------------------------------------------------------4-----------------| 
B|---0------------------------------------------------9-----------2-------------------| 
G|-------4-------6-------------------6------------------------6---2-------------------| 
D|-4-----5-----4-------6-----------4-------6----------------4-------------------------| 
A|-5-----------5-----4-------------5-----4------------------5-------------------------| 
E|-------------------5-------------------5--------------------------------------------| 
		  

Full key step upFull key step up
Half key step upHalf key step up
Half key step downHalf key step down
Full key step downFull key step down
hide glossary

See also:

tabs Oasis - Up in the sky tabs Oasis - Wonderwall (ver. 2) tabs Stone Temple Pilots - Sour Girl tabs Jethro Tull - Hymn 43 tabs Faith no More - Evidence tabs Oasis - Digsy's Dinner
e-chords

Other versions:

tabs Good Charlotte - The River tabs Parkway Drive - The River tabs Imagine Dragons - The River tabs Elbow - The River tabs 10 Years - The River tabs King Gizzard & The Lizard Wizard - The River
auto scroll beats size up size down change color hide chords drawings
tab show chords e-chords YouTube Clip e-chords hide all tabs e-chords go to top tab

share