Elbow

The Night Will Always Win

Elbow

tabs

by  TERR_SCHMITZ

save to print version add songbook text version e-mail correct tuner
chordsukulelecavacokeyboardtabbassdrumsharmonicaflute Guitar Pro
close

there isn't a video lesson for this song

chords

The Night Will Always Win

	  		

Intro 

 |----------| 
 |----------| 
 |--5-------| x30 
 |----------| 
 |----------| 
 |----------| 

1st verse 
|----------------| 
|----------------| 
|--5-5--7-7--9-9-|  (last 9 played 6x) 
|----------------| 
|----------------| 
|----------------| 

repeat this 2x 

the 3rd time turns into this at the end 
|---------------------------------------------| 
|---------------------------------------------| 
|--5-5--7-7-9-9-7-7-5-(9-7-7-5)- (x4) --------| 
|------------------------------------3(x4)----| 
|---------------------------------------------| 
|---------------------------------------------| 

Chorus 
|----------------------------| 
|----------------------------| 
|-4---5---4---5---4-5-5-5-5--| 
|----------------------------| 
|----------------------------| 
|----------------------------| 
"the night, will always win" 

|--------------------| 
|--------------------| 
|--4-5-4-5-7-7-4-5---| 
|--------------------| 
|--------------------| 
|--------------------| 

|----------------------| 
|----------------------| 
|--4-5-4-5-4-5-5-5-5---| 
|----------------------| 
|----------------------| 
|----------------------| 

Repeat Verse 

Repeat Chorus but play the last 5 14x 

Repeat Verse 

Repeat Chorus 

2nd Verse starts like this but ends like the 1st verse 
|-----------------------| 
|-----------------------| 
|--12 (5x)--5 (5x)------| 
|-----------------------| 
|-----------------------| 
|-----------------------| 

|-----------------------| 
|--12 (5x)--9 (5x)------| 
|-----------------------| 
|-----------------------| 
|-----------------------| 
|-----------------------| 
play end of 1st verse 


 
		  

See also:

tabs Oasis - Up in the sky tabs Oasis - Wonderwall (ver. 2) tabs Stone Temple Pilots - Sour Girl tabs Jethro Tull - Hymn 43 tabs Faith no More - Evidence tabs Oasis - Digsy's Dinner
e-chords

Other versions:

tabs Elbow - The Night Will Always Win
auto scroll beats size up size down change color hide chords drawings
tab show chords e-chords YouTube Clip e-chords hide all tabs e-chords go to top tab

share