EKV

Krug

EKV

tabs Beginner beginner

by  BOYAN

save to print version add songbook text version e-mail correct tuner
chordsukulelecavacokeyboardtabbassdrumsharmonicaflute Guitar Pro
close

there isn't a video lesson for this song

chords

Krug

	  		 
 
  A5                                G5 
E|----------------|----------------|----------------|----------------| 
B|----------------|----------------|----------------|----------------| 
G|----------------|----------------|----------------|----------------| 
D|----------------|----------------|----------------|----------------| 
A|7---------------|--------------7\|5---------------|----------------| 
E|5---------------|--------------5\|3---------------|----------------| 
 
  A5                                G5 
E|----------------|----------------|----------------|----------------| 
B|----------------|----------------|----------------|----------------| 
G|----------------|----------------|----------------|----------------| 
D|----------------|----------------|----------------|----------------| 
A|7---------------|--------------7\|5---------------|--------------5-| 
E|5---------------|--------------5\|3---------------|------------0-3-| 
 
  A5                                G5 
E|----------------|----------------|----------------|----------------| 
B|----------------|----------------|----------------|----------------| 
G|----------------|----------------|----------------|----------------| 
D|----------------|----------------|----------------|----------------| 
A|7---------------|--------------7\|5---------------|--------------5-| 
E|5---------------|------------0-5\|3---------------|------------0-3-| 
 
  A5                                G5 
E|----------------|----------------|----------------|----------------| 
B|----------------|----------------|----------------|----------------| 
G|----------------|----------------|----------------|----------------| 
D|----------------|----------------|----------------|----------------| 
A|7---------------|--------------7\|5---------------|----------------| 
E|5---------------|------------0-5\|3---------------|----------------| 
 
 
  Strofa: 
 
  Am               F                C                G 
E|----0----0---0--|----1----1---1--|----0----0---0--|----3----3---3--| 
B|----1----1---1--|----1----1---1--|----1----1---1--|----3----3---3--| 
G|2---2----2---2--|----2----2---2--|0---0----0---0--|----4----4---4--| 
D|2---2-----------|3---3-----------|2---2-----------|5---5-----------| 
A|0---------------|3---------------|3---------------|5---------------| 
E|----------------|1---------------|----------------|3---------------| 
 
  A5               F5               C5               G5 
 pm - - - - - - - - - - - - - - - - - - - - - - - - - - - - - - - - - 
E|----------------|----------------|----------------|----------------| 
B|----------------|----------------|----------------|----------------| 
G|----------------|----------------|----------------|----------------| 
D|----------------|----------------|5-5-5-5-5-5-5-5-|----------------| 
A|7-7-7-7-7-7-7-7-|3-3-3-3-3-3-3-3-|3-3-3-3-3-3-3-3-|5-5-5-5-5-5-5-5-| 
E|5-5-5-5-5-5-5-5-|1-1-1-1-1-1-1-1-|----------------|3-3-3-3-3-3-3-3-| 
 
 
  Refren: 
 
  Bb                                G 
E|----6----6---6--|----6----6---6--|----3----3---3--|----3----3---3--| 
B|----6----6---6--|----6----6---6--|----3----3---3--|----3----3---3--| 
G|----7----7---7--|----7----7---7--|----4----4---4--|----4----4---4--| 
D|8---8-----------|8---8-----------|5---5-----------|5---5-----------| 
A|8---------------|8---------------|5---------------|5---------------| 
E|6---------------|6---------------|3---------------|3---------------| 
 
 
  Prelaz: 
 
  A5               E5               A5               E5 
E|----------------|----------------|----------------|----------------| 
B|----------------|----------------|----------------|----------------| 
G|----------------|----------------|----------------|----------------| 
D|2---------------|----------------|2---------------|----------------| 
A|0----0--5--6--7-|2--2------------|0----0--5--6--7-|2--2------------| 
E|----------------|0--0------------|----------------|0--0------------| 
 
 
 
 
Ovaj krug sam smislio, ovaj krug sam stvorio 
Ovaj krug sam razbio, u vetar rasuo 
Vetar misli, vetar zna sve sto znamo ti i ja 
On me voli, on me nosi, on me razbija 
 
Kao da sam umoran i kao da sam star 
Kao da je dosadno i suvise da znam 
Ovaj krug sam skupio i opet sklopio 
On me voli, on me nosi, on mi oprasta 
aha, 
 
Kao ne, 
i kao da, 
i kao zabrana, 
i kao dozvola, 
i kao ne, ne, ne, 
i kao da, da, da, 
i kao zabava, 
i kao dosada... 
 
 

		  

Full key step upFull key step up
Half key step upHalf key step up
Half key step downHalf key step down
Full key step downFull key step down
hide glossary

See also:

tabs Eisbrecher - Exzess Express tabs Der W - Bitte Töte Mich tabs Die Toten Hosen - Nur Zu Besuch tabs Die Toten Hosen - Auswartspiel tabs Die Toten Hosen - How Do You Feel tabs Eisbrecher - Komm Ssser Tod
e-chords

Other versions:

tabs EKV - Krug
auto scroll beats size up size down change color hide chords drawings
tab show chords e-chords YouTube Clip e-chords hide all tabs e-chords go to top tab

share