Egypt Central

Change

Egypt Central

tabs

by  ALEFFEDERICO

save to print version add songbook text version e-mail correct tuner
chordsukulelecavacokeyboardtabbassdrumsharmonicaflute Guitar Pro
close

there isn't a video lesson for this song

chords

Change

Key:  D# More
Change Key A#A#
Change Key BB
Change Key CC
Change Key C#C#(one step down)
Change Key DD(half step down)
Change Key D#D#(original key)
Change Key EE(half step up)
Change Key FF(one step up)
Change Key F#F#
Change Key GG
Change Key G#G#
Change Key AA
	  		
Intro 
First there?s some muddy riff that?s very slow and has no instruments behind it. Then it is this: 
D#|---------------------------------------------------------------------------| 
A#|---------------------------------------------------------------------------| 
F#|------------------------5-5-5-5-5-5-5-5------------------------------------| 
C#|-0-0-0-0-x-x-x-0-0-0-0-----------------------------------------------------| 
G#|-0-0-0-0-x-x-x-0-0-0-0-----------------------------------------------------| 
C#|-0-0-0-0-x-x-x-0-0-0-0-----------------------------------------------------| 

Verse 
D#|---------------------------------------------------------------------------| 
A#|---------------------------------------------------------------------------| 
F#|---------------------------------------------------------------------------| 
C#|---------------------------------------------------------------------------| 
G#|-4-4-4-4-4-4-4-4-4-4-4-4-4-4-4-4-4-4-2-2-2?2-2-2-2-2-2-2-2-2-2-2-0-0-0-0-0-| 
C#|-4-4-4-4-4-4-4-4-4-4-4-4-4-4-4-4-4-4-2-2-2-2-2-2?2-2-2-2-2-2?2-2-0-0-0-0-0-| 
PM............................................................................ 

D#|---------------------------------------------------------------------------| 
A#|---------------------------------------------------------------------------| 
F#|---------------------------------------------------------------------------| 
C#|---------------------------------------------------------------------------| 
G#|-0-0-0-0-0-0-0-0-0-0?0-0-2-2-2-2-2-2-2-2-2-2-2-2-2-2-2-2-------------------| 
C#|-0-0-0-0-0-0-0-0-0-0-0-0-2-2-2-2-2-2-2-2-2-2-2-2-2-2-2-2-------------------| 
PM............................................................................ 

Pre-Chorus 
D#|---------------------------------------------------------------------------| 
A#|---------------------------------------------------------------------------| 
F#|---------------------------------------------------------------------------| 
C#|-4-2-----------------------------------------------------------------------| 
G#|-4-2-----------------------------------------------------------------------| 
C#|-4-2-----------------------------------------------------------------------| 

Chorus 
D#|---------------------------------------------------------------------------| 
A#|---------------------------------------------------------------------------| 
F#|---------------------------------------------------------------------------| 
C#|-4-4-4-4-4-4-4-4-4-4-2-2-2-2-2-2-2-2-2-2-0-0-0-0-0-0-0-0-0-0---------------| 
G#|-4-4-4-4-4-4-4-4?4-4-2-2-2-2-2-2-2-2-2-2-0-0-0-0-0-0-0-0-0-0---------------| 
C#|-4-4-4-4-4-4-4-4-4-4-2-2-2-2-2-2-2-2-2-2-0-0-0-0-0-0-0-0-0-0---------------| 

D#|---------------------------------------------------------------------------| 
A#|---------------------------------------------------------------------------| 
F#|---------------------5?5-5-5-5-5-5-5---------------------------------------| 
C#|-2-2-2-2-2-2-2-2-2-2-------------------------------------------------------| 
G#|-2-2-2-2-2-2-2-2-2-2-------------------------------------------------------| 
C#|-2-2-2-2?2-2-2-2-2-2------------------------------------------------------?| 

Verse 
D#|---------------------------------------------------------------------------| 
A#|---------------------------------------------------------------------------| 
F#|---------------------------------------------------------------------------| 
C#|---------------------------------------------------------------------------| 
G#|-4-4-4-4-4-4-4-4-4-4-4-4-4-4-4-4-4-4-2-2-2?2-2-2-2-2-2-2-2-2-2-2-0-0-0-0-0-| 
C#|-4-4-4-4-4-4-4-4-4-4-4-4-4-4-4-4-4-4-2-2-2-2-2-2?2-2-2-2-2-2?2-2-0-0-0-0-0-| 
PM............................................................................ 

D#|---------------------------------------------------------------------------| 
A#|---------------------------------------------------------------------------| 
F#|---------------------------------------------------------------------------| 
C#|---------------------------------------------------------------------------| 
G#|-0-0-0-0-0-0-0-0-0-0?0-0-2-2-2-2-2-2-2-2-2-2-2-2-2-2-2-2-------------------| 
C#|-0-0-0-0-0-0-0-0-0-0?0-0-2-2-2-2-2-2-2-2-2-2-2-2-2-2-2-2-------------------| 
PM............................................................................. 

Pre-Chorus 
D#|---------------------------------------------------------------------------| 
A#|---------------------------------------------------------------------------| 
F#|---------------------------------------------------------------------------| 
C#|-4-2-----------------------------------------------------------------------| 
G#|-4-2-----------------------------------------------------------------------| 
C#|-4-2-----------------------------------------------------------------------| 

Chorus 
D#|---------------------------------------------------------------------------| 
A#|---------------------------------------------------------------------------| 
F#|---------------------------------------------------------------------------| 
C#|-4-4-4-4-4-4-4-4-4-4-2-2-2-2-2-2-2-2-2-2-0-0-0-0-0-0-0-0-0-0---------------| 
G#|-4-4-4-4-4-4-4-4?4-4-2-2-2-2-2-2-2-2-2-2-0-0-0-0-0-0-0-0-0-0---------------| 
C#|-4-4-4-4-4-4-4-4-4-4-2-2-2-2-2-2-2-2-2-2-0-0-0-0-0-0-0-0-0-0---------------| 

D#|---------------------------------------------------------------------------| 
A#|---------------------------------------------------------------------------| 
F#|---------------------5?5-5-5-5-5-5-5---------------------------------------| 
C#|-2-2-2-2-2-2-2-2-2-2-------------------------------------------------------| 
G#|-2-2-2-2-2-2-2-2-2-2-------------------------------------------------------| 
C#|-2-2-2-2?2-2-2-2-2-2------------------------------------------------------?| 

Bridge 
D#|---------------------------------------------------------------------------| 
A#|---------------------------------------------------------------------------| 
F#|---------------------------------------------------------------------------| 
C#|---------------------------------------------------------------------------| 
G#|-4-4-4-4-4-4-4-4-4-4-4-4-4-4-4-4-4-4-2-2-2?2-2-2-2-2-2-2-2-2-2-2-0-0-0-0-0-| 
C#|-4-4-4-4-4-4-4-4-4-4-4-4-4-4-4-4-4-4-2-2-2-2-2-2?2-2-2-2-2-2?2-2-0-0-0-0-0-| 
PM............................................................................ 

D#|---------------------------------------------------------------------------| 
A#|---------------------------------------------------------------------------| 
F#|---------------------------------------------------------------------------| 
C#|---------------------------------------------------------------------------| 
G#|-0-0-0-0-0-0-0-0-0-0?0-0-2-2-2-2-2-2-2-2-2-2-2-2-2-2-2-2-------------------| 
C#|-0-0-0-0-0-0-0-0-0-0?0-0-2-2-2-2-2-2-2-2-2-2-2-2-2-2-2-2-------------------| 
PM............................................................................. 

D#|---------------------------------------------------------------------------| 
A#|---------------------------------------------------------------------------| 
F#|---------------------------------------------------------------------------| 
C#|-4-4-x-4-4-----------------------------------------------------------------| 
G#|-4-4-x-4-4-----------------------------------------------------------------| 
C#|-4-4-x-4-4-----------------------------------------------------------------| 

Solo 
Lead Guitar: 
D#|---------------------------------------------------------------------------| 
A#|-------------------10--10--10--10-?10??10??10??10?8?6?10?10b?10b?10b?10b?10| 
F#|-10-12-12-12-12-12-12b-12b-12b-12b-12b-12b-12b-----------------------------| 
C#|---------------------------------------------------------------------------| 
G#|---------------------------------------------------------------------------| 
C#|---------------------------------------------------------------------------| 

D#|-14-12-10------------------------------------------------------------------| 
A#|----------14-12-10---------------------------------------------------------| 
F#|-------------------14?12-10-14-12?10?14p12?14p12---------------------------| 
C#|---------------------------------------------------------------------------|  
G#|---------------------------------------------------------------------------| 
C#|---------------------------------------------------------------------------| 

D#|-14-12-10------------------------------------------------------------------| 
A#|----------14-12-10---------------------------------------------------------| 
F#|-------------------14?12-10-14-12?10?14p12?14p12---------------------------| 
C#|---------------------------------------------------------------------------|  
G#|---------------------------------------------------------------------------| 
C#|---------------------------------------------------------------------------| 

Rhythm Guitar: 
D#|---------------------------------------------------------------------------| 
A#|---------------------------------------------------------------------------| 
F#|---------------------------------------------------------------------------| 
C#|-4-------------------------------------------------------------------------| 
G#|-4-------------------------------------------------------------------------| 
C#|-4-------------------------------------------------------------------------| 

Just keep hitting that for the rhythm guitar beneath the solo. :P 

Chorus Extra note here: unlike the other Choruses, you play the progression in the last Chorus twice. 
D#|---------------------------------------------------------------------------| 
A#|---------------------------------------------------------------------------| 
F#|---------------------------------------------------------------------------| 
C#|-4-4-4-4-4-4-4-4-4-4-2-2-2-2-2-2-2-2-2-2-0-0-0-0-0-0-0-0-0-0---------------| 
G#|-4-4-4-4-4-4-4-4?4-4-2-2-2-2-2-2-2-2-2-2-0-0-0-0-0-0-0-0-0-0---------------| 
C#|-4-4-4-4-4-4-4-4-4-4-2-2-2-2-2-2-2-2-2-2-0-0-0-0-0-0-0-0-0-0---------------| 

D#|---------------------------------------------------------------------------| 
A#|---------------------------------------------------------------------------| 
F#|---------------------5?5-5-5-5-5-5-5---------------------------------------| 
C#|-2-2-2-2-2-2-2-2-2-2-------------------------------------------------------| 
G#|-2-2-2-2-2-2-2-2-2-2-------------------------------------------------------| 
C#|-2-2-2-2?2-2-2-2-2-2------------------------------------------------------?| 

D#|---------------------------------------------------------------------------| 
A#|---------------------------------------------------------------------------| 
F#|---------------------------------------------------------------------------| 
C#|-4-4-4-4-4-4-4-4-4-4-2-2-2-2-2-2-2-2-2-2-0-0-0-0-0-0-0-0-0-0---------------| 
G#|-4-4-4-4-4-4-4-4?4-4-2-2-2-2-2-2-2-2-2-2-0-0-0-0-0-0-0-0-0-0---------------| 
C#|-4-4-4-4-4-4-4-4-4-4-2-2-2-2-2-2-2-2-2-2-0-0-0-0-0-0-0-0-0-0---------------| 

D#|---------------------------------------------------------------------------| 
A#|---------------------------------------------------------------------------| 
F#|---------------------5?5-5-5-5-5-5-5---------------------------------------| 
C#|-2-2-2-2-2-2-2-2-2-2-------------------------------------------------------| 
G#|-2-2-2-2-2-2-2-2-2-2-------------------------------------------------------| 
C#|-2-2-2-2?2-2-2-2-2-2------------------------------------------------------?| 

Outro 
D#|---------------------------------------------------------------------------| 
A#|---------------------------------------------------------------------------| 
F#|---------------------------------------------------------------------------| 
C#|---------------------------0-----------------------------------------------| x3 
G#|-0-0-0-0-0-0-0-0-0-0-0-0-0-------------------------------------------------|  
C#|-0-0-0-0-0-0-0-0-0-0-0-0-0------------------------------------------------?| 
PM........................... 



************************************ 

| x   Dead note 
| p   Pull-off 
| b   Bend 
| PM  Palm mute 

************************************ 
		  

auto scroll beats size up size down change color hide chords drawings
tab show chords e-chords YouTube Clip e-chords hide all tabs e-chords go to top tab

share