Edward Elgar

Graduation March

Edward Elgar

tabs

by  BOMBAXXX

save to print version add songbook text version e-mail correct tuner
chordsukulelecavacokeyboardtabbassdrumsharmonicaflute Guitar Pro
close

there isn't a video lesson for this song

chords

Graduation March

	  		
intro 

e|-----------0-------------------------------------------3--3--2--0----------| 
B|--3--2--3----------------------------------------------------------3-------| 
G|--------------4--2--0---------2-----------------7--2-----------------------|   
D|-----------------------4--5------2--4--4--5--7-----------------------------|  x2 
A|---------------------------------------------------------------------------| 
E|---------------------------------------------------------------------------| 


verse 

e|-----------0-------------------------------------------8--8--7--5--3-------| 
B|--3--2--3------------------------------------------------------------------| 
G|--------------4--2--0---------2-----------------7--2-----------------------| 
D|-----------------------4--5------2--4--4--5--7-----------------------------|  
A|---------------------------------------------------------------------------| 
E|---------------------------------------------------------------------------|  
		  

See also:

tabs Edward Elgar - Graduation March tabs Nick Drake - Free Ride tabs Nick Drake - One Of These Things First
e-chords

Other versions:

tabs Edward Elgar - Graduation March
auto scroll beats size up size down change color hide chords drawings
tab show chords e-chords YouTube Clip e-chords hide all tabs e-chords go to top tab

share