Edguy

home > Edguy

Vain glory opera Tab

Edguy

Difficulty: ExpertExpert

tuner correct add songbook print version text version save to e-mail
chordsukulelecavacokeyboardtabbassdrumsharmonicsflute Guitar Pro
chords

Vain glory opera

  		 
Introdução para teclado    X  4 
 
E|---------------------8------------------------------------8---------------------| 
B|--8--10--11--10--11-----11--10--8------8--10--11--10--11-----11--10--8--10------| 
G|-----------------------------------10---------------------------------------10--| 
D|--------------------------------------------------------------------------------| 
A|--------------------------------------------------------------------------------| 
E|--------------------------------------------------------------------------------| 
 
E|-----------------------------------10--11--8----------| 
B|--8--10------8--10--11--10--8-----------------11--10--| 
G|---------10--------------------10---------------------| 
D|------------------------------------------------------| 
A|------------------------------------------------------| 
E|------------------------------------------------------| 
 
GUITARS COME IN ON THIRD TIME 
 
E|---------------------------------------| 
B|---------------------------------------| 
G|--------------8--------------3---------| 
D|------5-------8-------3------3------3--| 
A|------5-------6-------3------1------3--| 
E|------3---------------1-------------1--|  
     P.M............ 
                                                    
VERSO: X 2  (MESMO DA INTRODUÇÃO) 
BRIDGE: 
 
E|----------------| 
B|----------------| 
G|------5---------| 
D|------5------5--| 
A|------3------5--|  
E|-------------3--| 
     P.M....... 
 
RIFF "CURTO":         
 
E|-------------------------------------------------------------| 
B|-------------------------------------------------------------| 
G|-------------------------------------------------------------| 
D|----5-----------3-----------5-----------6-----------5--3--5--| 
A|----3--3--3--3--3--3--3--3--3--3--3--3--3--3--3--3--3--3--3--| 
E|-------------------------------------------------------------|  
         | P.M..|    | P.M..|    | P.M..|    | P.M..|  
 
E|---------------| 
B|---------------| 
G|--------3------| 
D|---6----3------| 
A|---6----1------| 
E|---4-----------|  
 
CHORUS:   X 2 
 
E|--------------------------------------------------------------------| 
B|--------------------------------------------------------------------| 
G|----5-----------3------------3-----5-----------3-----------3----5---| 
D|----5-----3-----3------6-----3-----5-----6-----3-----6-----3----5---| 
A|----3-----3-----1------6-----1-----3-----6-----1-----6-----1----3---| 
E|----------1------------4-----------------4-----------4--------------|  
 
RIFF CURTO:  X 2 
 
E|------------------------------------------------------------| 
B|------------------------------------------------------------| 
G|------------------------------------------------------------| 
D|---5-----------3-----------5-----------6-----------5--3--5--| 
A|---3--3--3--3--3--3--3--3--3--3--3--3--3--3--3--3--3--3--3--| 
E|------------------------------------------------------------|  
 
VERSO:  X 2     MESMO DE CIMA 
 
BRIDGE:         IGUAL AO DE CIMA  
 
RIFF: X 2       IGUAL AO DE CIMA  
 
CHORUS:         IGUAL AO DE CIMA  
 
INTRO NOVAMENTE:  X 2 
 
TECLADO: 
E|----------------------13--------------------------------------13------------------| 
B|--13--15--16--15--16------16--15--13------13--15--16--15--16------16--15--13--15--| 
G|--------------------------------------15------------------------------------------| 
D|----------------------------------------------------------------------------------| 
A|----------------------------------------------------------------------------------| 
E|----------------------------------------------------------------------------------| 
 
E|------------------------------------------15--16--13----------| 
B|------13--15------13--15--16--15--13------------------16--15--| 
G|--15----------15----------------------15----------------------| 
D|--------------------------------------------------------------| 
A|--------------------------------------------------------------| 
E|--------------------------------------------------------------| 
 
GUITARRA PARA TECLADO: 
E|------------------------------------| 
B|------------------------------------| 
G|----5--------------------8----------| 
D|----5------6------8------8------8---| 
A|----3------6------8------6------8---|                                                                                                                     
E|-----------4------6-------------6---|  
 
SOLO GUITARRA:   
TAPPING 
 
E|---h11p15-8h11p15-8h11p15-8h11p15-8h11p15-8h11p15-8h11p15-8h11p15-8h11p15-8h11p15--| 
B------------------------------------------------------------------------------------| 
G|-----------------------------------------------------------------------------------| 
D|-----------------------------------------------------------------------------------| 
A|-----------------------------------------------------------------------------------| 
E|-----------------------------------------------------------------------------------|  
 
E|--8h11p15-8h11p15-8h11p15-8h11p15-8h11p15-8h11p15-8h11p16-8h11p16-8h11p16-8h11p16--| 
B|-----------------------------------------------------------------------------------| 
G|-----------------------------------------------------------------------------------| 
D|-----------------------------------------------------------------------------------| 
A|-----------------------------------------------------------------------------------| 
E|-----------------------------------------------------------------------------------|  
 
E|--8h11p16-8h11p16-8h11p16-8h11p16-8h11p16-8h11p16-8h11p16-8h11p16-8h11h16-8h11p16--| 
B|-----------------------------------------------------------------------------------| 
G|-----------------------------------------------------------------------------------| 
D|-----------------------------------------------------------------------------------| 
A|-----------------------------------------------------------------------------------| 
E|-----------------------------------------------------------------------------------| 
 
E|--8h11p16-8h11p16-10h13p18-10h13p18-10h13p18-10h13p18-10h13p18-10h13p18-10h13p18---| 
B|-----------------------------------------------------------------------------------| 
G|-----------------------------------------------------------------------------------| 
D|-----------------------------------------------------------------------------------| 
A|-----------------------------------------------------------------------------------| 
E|-----------------------------------------------------------------------------------|  
 
E|--10h13p16-10h13p18-10h13p18-10h13p18-10h13p18-10h13p18-10h13p18-10h13p18-10h13p18-| 
B|-----------------------------------------------------------------------------------| 
G|-----------------------------------------------------------------------------------| 
D|-----------------------------------------------------------------------------------| 
A|-----------------------------------------------------------------------------------| 
E|-----------------------------------------------------------------------------------| 
                                                                                        
E|--15-15^-13---| 
B|--------------| 
G|--------------| 
D|--------------| 
A|--------------| 
E|--------------| 
  
SOLO TECLADO: 
E|----------------------------------------------------------------------------------| 
B|--15/16--15------15/16--15----------15/16--15----------------------15/16--15------| 
G|---------------------------------------------------15--17--17--17-----------------| 
D|-------------17-------------17--17-------------17-----------------------------15--| 
A|----------------------------------------------------------------------------------| 
E|----------------------------------------------------------------------------------| 
 
E|--------------------------------------------| 
B|--15/16--15------15/16--18--20--18--16--15--| 
G|--------------------------------------------| 
D|-------------15-----------------------------| 
A|--------------------------------------------| 
E|--------------------------------------------| 
 
BRIDGE:           MESMO DE CIMA 
RIFF:             ============= 
 
CHORUS: X 6       ============= 
 
 
NOTAS: 
 
/  SLIDE 
^  BEND 
h  HAMMER ON 
p  PULL OF 
= REPETE O DE CIMA 
 
 
_______________________________________________________ 
Contribuição: Marco A. K. Martins([email protected]) 

	  

Search Paypal
auto scroll beats size up size down change color hide chords drawings
tab show chords e-chords YouTube Clip e-chords hide all tabs e-chords go to top tab