Edguy

home > Edguy

Falling Down Tab

Edguy

Difficulty: nolevelnolevel

by eduardo%5Flyvio

tuner correct add songbook print version text version save to e-mail
chordsukulelecavacokeyboardtabbassdrumsharmonicsflute Guitar Pro
chords

Falling Down

  		*Disable word wrap under edit to view this document correctly! 
 
Tablature explanation: 
 
h  = hammer on             .   = Palm mute 
p  = pull off              A.H = Artificial harmonics 
b  = Bend                  pb  = prebend 
r  = release bend          s   = slide 
 
All guitars are 1/2 downed 
 
 
{Intro:} 
 
eb||----------| 
Bb||10-8------| 
Gb||-----10-9-| 
Db||----------| 
Ab||----------| 
Eb||----------| 
  ||          | 
eb||----------| 
Bb||----------| 
Gb||10-9-7----| 
Db||-------10-| 
Ab||----------| 
Eb||----------| 
 
 
 
   C#5                 A#5                B5               G#5 
eb||-------------------|------------------|----------------|--------------------| 
Bb||-----10---8--------|10b11r---8---10---|8---------------|-------8--8b10r-----| 
Gb||10------------10---|------------------|----------------|9--10------------9--| 
Db||-------------------|------------------|----------------|--------------------| 
Ab||-------------------|------------------|----------------|--------------------| 
Eb||-------------------|------------------|----------------|--------------------| 
  ||                                                                            | 
eb||-------------------|------------------|----------------|--------------------| 
Bb||-------------------|------------------|----------------|--------------------| 
Gb||7---10---9---7-----|10b12r---9---10---|9---------------|----7--9--9b10r-----| 
Db||-------------------|------------------|----------------|10---------------10-| 
Ab||-------------------|------------------|----------------|--------------------| 
Eb||-------------------|------------------|----------------|--------------------| 
 
 
   C#5                 A#5                B5               C#5 
eb||-------------------|------------------|----------------|--------------------| 
Bb||-----10---8--------|10b11r---8---10---|8---------------|--------------------| 
Gb||10------------10---|------------------|----------------|--------------------| 
Db||-------------------|------------------|----------------|--------------------| 
Ab||-------------------|------------------|----------------|--------------------| 
Eb||-------------------|------------------|----------------|--------------------| 
  ||                                                                            | 
eb||-------------------|------------------|----------------|--------------------| 
Bb||-------------------|------------------|----------------|--------------------| 
Gb||7---10---9---7-----|10b12r---9---10---|9---------------|----7--9--9b10r-----| 
Db||-------------------|------------------|----------------|10---------------10-| 
Ab||-------------------|------------------|----------------|--------------------| 
Eb||-------------------|------------------|----------------|--------------------| 
 
 
{Verse1:} 
 
   Add some Chorus to this guitar: 
eb||5----------------------|7----------------------|-----------------------|1-------------------| 
Bb||5----------------------|5----------------------|8----------------------|1-------------------| 
Gb||5----------------------|5----------------------|5----------------------|2-------------------| 
Db||7----------------------|7----------------------|7----------------------|3-------------------| 
Ab||-----------------------|-----------------------|7----------------------|--------------------| 
Eb||-----------------------|-----------------------|-----------------------|--------------------| 
  ||                                                                                            | 
eb||-----------------------|-----------------------|-----------------------|--------------------| 
Bb||-----------------------|-----------------------|-----------------------|--------------------| 
Gb||-----------------------|-----------------------|-----------------------|--------------------| 
Db||7---7---7p5h7----5h7---|7---7---7p5h7----5h7---|7---7---7p5h7----5h7---|7-----9-----10~-----| 
Ab||-----------------------|-----------------------|-----------------------|8-----10----12~-----| 
Eb||-----------------------|-----------------------|-----------------------|--------------------| 
  No brain is left... 
 
eb||5----------------------|7----------------------|-----------------------|1-------------------| 
Bb||5----------------------|5----------------------|8----------------------|1-------------------| 
Gb||5----------------------|5----------------------|5----------------------|2-------------------| 
Db||7----------------------|7----------------------|7----------------------|3-------------------| 
Ab||-----------------------|-----------------------|7----------------------|--------------------| 
Eb||-----------------------|-----------------------|-----------------------|--------------------| 
  ||                                                                                            | 
eb||-----------------------|-----------------------|-----------------------|--------------------| 
Bb||-----------------------|-----------------------|-----------------------|--------------------| 
Gb||-----------------------|-----------------------|-----------------------|--------------------| 
Db||7---7---7p5h7----5h7---|7---7---7p5h7----5h7---|7---7---7p5h7----5h7---|3-----3-----3-------| 
Ab||-----------------------|-----------------------|-----------------------|3-----3-----3-------| 
Eb||-----------------------|-----------------------|-----------------------|1-----1-----1-------| 
   When he created... 
 
{Bridge:} 
 
eb||-----------------------|-----------------------|-----------------------|--------------------| 
Bb||-----------------------|-----------------------|-----------------------|--------------------| 
Gb||-----------------------|-----------------------|-----------------------|--------------------| 
Db||3----------------------|3----------------------|-----------------------|--------------------| 
Ab||1----------------------|1----------------------|3----------------------|3-------------------| 
Eb||-----------------------|-----------------------|1----------------------|1-------------------| 
 
eb||-----------------------|-----------------------|-----------------------|--------------------| 
Bb||-----------------------|-----------------------|-----------------------|--------------------| 
Gb||-----------------------|-----------------------|-----------------------|--------------------| 
Db||3----------------------|3----------------------|-----------------------|5-------------------| 
Ab||1----------------------|3----------------------|5----------------------|3-------------------| 
Eb||-----------------------|-----------------------|3----------------------|--------------------| 
 
eb||-----------------------| 
Bb||-----------------------| 
Gb||-----------------------| 
Db||--------5--------------| 
Ab||333333333---Fill-------| 
Eb||-----------------------| 
    ........ 
 
    Fill: 
eb||----------|----| 
Bb||10-8------|----| 
Gb||-----10-9-|10--| 
Db||----------|----| 
Ab||----------|----| 
Eb||----------|----| 
  ||               | 
eb||----------|----| 
Bb||----------|----| 
Gb||10-9-7----|7---| 
Db||-------10-|----| 
Ab||----------|----| 
Eb||----------|----| 
 
{Chorus 1:} 
 
eb||-----------------------|-----------------------|-----------------------|--------------------| 
Bb||-----------------------|-----------------------|-----------------------|--------------------| 
Gb||-----------------------|-----------------------|-----------------------|--------------------| 
Db||7----------------------|-----------------------|5----------------------|--------------------| 
Ab||5----------------------|8----------------------|3----------------------|7-------------------| 
Eb||-----------------------|6----------------------|-----------------------|5-------------------| 
 
{Chorus 2:} 
 
eb||-----------------------|-----------------------|-----------------------|--------------------| 
Bb||-----------------------|-----------------------|-----------------------|--------------------| 
Gb||-----------------------|-----------------------|-----------------------|--------------------| 
Db||-----------------------|-----------------------|-----------------------|--------------------| 
Ab||-----------------------|-----------------------|-----------------------|--------------------| 
Eb||-----------------------|-----------------------|-----------------------|--------------------| 
 
There's plenty of work to do on this one, perhaps someone else will feel inspired to continue? 
 

	  

Full key step upFull key step up
Half key step upHalf key step up
Half key step downHalf key step down
Full key step downFull key step down
Search Paypal
auto scroll beats size up size down change color hide chords drawings
tab show chords e-chords YouTube Clip e-chords hide all tabs e-chords go to top tab