Edguy

home > Edguy

Down to the Devil Tab

Edguy

Difficulty: nolevelnolevel

by eduardo%5Flyvio

tuner correct add songbook print version text version save to e-mail
chordsukulelecavacokeyboardtabbassdrumsharmonicsflute Guitar Pro
chords

Down to the Devil

  		Transcribed By: Karppa { [email protected] } 
Days tabbed: 12-13.3.2oo4 
 
Please mail me for any comments and corrections! 
 
----------------------------------------- 
 
. = palm muting 
! = mute strings 
\ = slide down 
/ = slide up 
p = pull off 
h = hammer on 
 
I've tried my best with the timing, but please, listen for yourself. 
And for the mistakes, don't blame me, blame my hangover ;) 
 
 
Normal tuning! 
 
{INTRO} 
 
  G1: 
E|-----------------|-----------------|-----------------|-----------------| 
b|-----------------|-----------------|-----------------|---------8-------| 
g|-----------------|-5-------------5-|-7---------------|-7-------7---7---| 
d|-2-------------2-|-5-------------5-|-7---------------|-7-------5---7---| 
a|-2-------------2-|-3----------33-3-|-5---------------|-5-----------5---| 
e|-0----------00-0-|-----------------|-----------------|-----------------| 
 | 
E|-----------------|-----------------|-----------------|-----------------| 
b|-----------------|-----------------|-----------------|-----------------| 
g|-----------------|-5-------------5-|-7---------------|-7--7--777\x-----| 
d|-2-------------2-|-5-------------5-|-7---------------|-7--7--777\x-----| 
a|-2-------------2-|-3----------33-3-|-5---------------|-555555555\x-----| 
e|-0----------00-0-|-----------------|-----------------|-----------------| 
 
  G2: 
E|-15--14-------------14-|-15--14-------------14-|-15--14----------------|---------15--15b17--14-| 
b|---------15------15----|---------15------15----|---------15------------|-----------------------| 
g|-------------16--------|-------------16--------|------------14---------|-----------------------| 
d|-----------------------|-----------------------|-----------------------|-----------------------| 
a|-----------------------|-----------------------|-----------------------|-----------------------| 
e|-----------------------|-----------------------|-----------------------|-----------------------| 
| 
E|-15--14-------------14-|-15--14-------------14-|-15--14-------------14~|-----------------------| 
b|---------15------15----|---------15------15----|---------15-----15-----|-----------------------| 
g|-------------16--------|-------------16--------|------------14---------|-----------------------| 
d|-----------------------|-----------------------|-----------------------|-----------------------| 
a|-----------------------|-----------------------|-----------------------|-----------------------| 
e|-----------------------|-----------------------|-----------------------|-----------------------| 
 
{VERSE 1} 
 
  BOTH GUITARS: 
E|------------------|------------------|------------------|------------------| 
b|------------------|------------------|------------------|------------------| 
g|------------------|------------------|------------------|------------------| 
d|------------------|------------------|------------------|------------------| 
a|-7777777777777777-|-7777777777777777-|-7777777777777777-|-7777777777777252-| 
e|------------------|------------------|------------------|------------------| 
 | ................   ................   ................   ............. 
E|------------------|------------------|------------------|------------------| 
b|------------------|------------------|------------------|------------------| 
g|------------------|------------------|------------------|------------------| 
d|------------------|------------------|------------------|----------9999999-| 
a|-7777777777777777-|-7777777777777777-|-7777777777777777-|-7777777777777777-| 
e|------------------|------------------|------------------|------------------| 
   ................   ................   ................   ......... 
 
{PRE-Chorus 1} 
 
  G1: 
E|-----------------|------------------|-----------------|-----------------| 
b|-----------------|------------------|-----------------|-----------------| 
g|-5---------------|-7-------7--7--77-|-------4-4~-2~-4~|-----------------| 
d|-5-------------5~|-7-------7--7--77-|----4------------|-5--4--5---------| 
a|-3-------3~-7~---|-5-------55555555-|-2---------------|-3-33-33---------| 
e|-----------------|------------------|-----------------|-----------------| 
 | 
E|-----------------|-----------------|-----------------|---------5----------------| 
b|-----------------|-----------------|---------7-----7-|-7h8p7-----7---7h8--------| 
g|-----------------|---------5-------|----7-------7----|-------7-----7-----7---77-| 
d|-7---------------|-5-------5-------|-------7---------|-----------------------77-| 
a|-7-------7~-5~-7~|-5-------3-------|-5---------------|-----------------------55-| 
e|-5---------------|-3---------------|-----------------|--------------------------| 
 
  G2: 
E|-----------------|------------------|-----------------|-----------------| 
b|-----------------|------------------|-----------------|-----------------| 
g|-5-------------4~|-7-------7--7--77-|-------4---------|-----------------| 
d|-5-------2~-5~---|-7-------7--7--77-|----4----5~-4~-5~|-5--4--5---------| 
a|-3---------------|-5-------55555555-|-2---------------|-3-33-33---------| 
e|-----------------|------------------|-----------------|-----------------| 
 | 
E|-----------------|-----------------|-----------------|---------5----------------| 
b|-----------------|-----------------|---------7-----7-|-7h8p7-----7---7h8--------| 
g|-----------------|---------5-------|----7-------7----|-------7-----7-----7---77-| 
d|-7---------------|-5-------5-------|-------7---------|-----------------------77-| 
a|-7---------------|-5-------3-------|-5---------------|-----------------------55-| 
e|-5-------8~-7~-8~|-3---------------|-----------------|--------------------------| 
 
{Chorus 1} 
 
  BOTH GUITARS: 
E|-----------------|-----------------|-----------------|-----------------| 
b|-----------------|-----------------|-----------------|-----------------| 
g|-----------------|-5---------------|-7---------------|-4-------5---7-7-| 
d|-2---------------|-5-------7-------|-7---------------|-4-------5---7-7-| 
a|-2---------------|-3-------7-------|-5---------------|-2-------3---5-5-| 
e|-0---------------|---------5-------|-----------------|-----------------| 
 | 
E|-----------------|-----------------|-----------------|-----------------| 
b|-----------------|-----------------|-----------------|-----------------| 
g|-----------------|-5---------------|-7---------------|-7--7--7--7--7-7-| 
d|-2---------------|-5---------------|-7---------------|-7--7--7--7--7-7-| 
a|-2---------------|-3---------------|-5---------------|-555555555555555-| 
e|-0---------------|-----------------|-----------------|-----------------| 
 
{BRIDGE} 
 
  G1: 
E|---------------------------------|---------------------------------| 
b|---------------------------------|---------------------------------| 
g|---------------7---9-----9p7---7-|---------------9---9-----9p7---7-| 
d|---------9p7-----------------9---|---------9p7-----------------9---| 
a|-7-7-7-7-----7---7---7-7---------|-7-7-7-7-----7---7---7-7---------| 
e|---------------------------------|---------------------------------| 
 | 
E|---------------------------------|---------------------------------| 
b|---------------------------------|---------------------------------| 
g|---------------7---9-----9p7-----|-----5---5-----4---4-----4h5-5---| 
d|---------9p7-----------------9\--|-----5---5-----5---5-----5---5---| 
a|-7-7-7-7-----7---7---7-7---------|-3-3---3---3-3---3---3-3---------| 
e|---------------------------------|---------------------------------| 
 
  G2: 
E|-----------------| 
b|-----------------| 
g|-9\\\------------| 
d|-9\\\------------| 
a|-7\\\------------| 
e|-----------------| 
 
{VERSE 2} 
 
  BOTH GUITARS: 
E|------------------|-----------------|-----------------|-----------------| 
b|------------------|-----------------|-----------------|-----------------| 
g|-9-------------12-|--------11-------|-12--------------|-7---------------| 
d|-9-------------12-|--------12-------|-12--------------|-7---------------| 
a|-7-------------10-|---------9-------|-10--------------|-5---------------| 
e|------------------|-----------------|-----------------|-----------------| 
 | 
E|------------------|-----------------|-----------------|------------------| 
b|------------------|-----------------|-----------------|------------------| 
g|-9-------------12-|--------11-------|-12--------------|------------------| 
d|-9-------------12-|--------12-------|-12--------------|-7-------7--77777-| 
a|-7-------------10-|---------9-------|-10--------------|-7-------7--77777-| 
e|------------------|-----------------|-----------------|-5-------55555555-| 
 
{PRE-Chorus 2} 
 
  G1: 
E|-----------------|------------------|-----------------|-----------------| 
b|-----------------|------------------|-----------------|-----------------| 
g|-5-!-------------|-7-------7--7--77-|-------4-4~-2~-4~|-----------------| 
d|-5-!-----------5~|-7-------7--7--77-|----4------------|-5--4--5---------| 
a|-3-!-----3~-7~---|-5-------55555555-|-2---------------|-3-33-33---------| 
e|-----------------|------------------|-----------------|-----------------| 
 | 
E|-----------------|-----------------|-----------------|---------5----------------| 
b|-----------------|-----------------|---------7-----7-|-7h8p7-----7---7h8--------| 
g|-----------------|---------5-------|----7-------7----|-------7-----7-----7---77-| 
d|-7---------------|-5-------5-------|-------7---------|-----------------------77-| 
a|-7-------7~-5~-7~|-5-------3-------|-5---------------|-----------------------55-| 
e|-5---------------|-3---------------|-----------------|--------------------------| 
 
  G2: 
E|-----------------|------------------|-----------------|-----------------| 
b|-----------------|------------------|-----------------|-----------------| 
g|-5-!-----------4~|-7-------7--7--77-|-------4---------|-----------------| 
d|-5-!-----2~-5~---|-7-------7--7--77-|----4----5~-4~-5~|-5--4--5---------| 
a|-3-!-------------|-5-------55555555-|-2---------------|-3-33-33---------| 
e|-----------------|------------------|-----------------|-----------------| 
 | 
E|-----------------|-----------------|-----------------|---------5----------------| 
b|-----------------|-----------------|---------7-----7-|-7h8p7-----7---7h8--------| 
g|-----------------|---------5-------|----7-------7----|-------7-----7-----7---77-| 
d|-7---------------|-5-------5-------|-------7---------|-----------------------77-| 
a|-7---------------|-5-------3-------|-5---------------|-----------------------55-| 
e|-5-------8~-7~-8~|-3---------------|-----------------|--------------------------| 
 
{Chorus 2} 
 
  BOTH GUITARS: 
E|-----------------|-----------------|-----------------|-----------------| 
b|-----------------|-----------------|-----------------|-----------------| 
g|-----------------|-5---------------|-7---------------|-4-------5---7-7-| 
d|-2---------------|-5-------7-------|-7---------------|-4-------5---7-7-| 
a|-2---------------|-3-------7-------|-5---------------|-2-------3---5-5-| 
e|-0---------------|---------5-------|-----------------|-----------------| 
 | 
E|-----------------|-----------------|-----------------|-----------------| 
b|-----------------|-----------------|-----------------|-----------------| 
g|-----------------|-5---------------|-7---------------|-7-------7---9---| 
d|-2---------------|-5---------------|-7---------------|-7-------7---9---| 
a|-2---------------|-3---------------|-5---------------|-5-------5---7---| 
e|-0---------------|-----------------|-----------------|-----------------| 
 
{INTRO} 
 
  G1: 
E|-----------------|-----------------|-----------------|-----------------| 
b|-----------------|-----------------|-----------------|-----------------| 
g|-----------------|-7-------------7-|-----------------|---------2-------| 
d|-4-------------4-|-7-------------7-|-2---------------|-2-------2---2---| 
a|-4-------------4-|-5----------55-5-|-2---------------|-2-------0---2---| 
e|-2----------22-2-|-----------------|-0---------------|-0-----------0---| 
 | 
E|-----------------|-----------------|-----------------|-----------------| 
b|-----------------|-----------------|-----------------|-----------------| 
g|-----------------|-7-------------7-|-9---------------|-9--9--9--9--9-9-| 
d|-4-------------4-|-7-------------7-|-9---------------|-9--9--9--9--9-9-| 
a|-4-------------4-|-5----------55-5-|-7---------------|-777777777777777-| 
e|-2----------22-2-|-----------------|-----------------|-----------------| 
 
  G2: 
E|-17--16-------------16-|-17--16-------------16-|-17--16----------------|---------17--17b19--16-| 
b|---------17------17----|---------17------17----|---------17------------|-----------------------| 
g|-------------18--------|-------------18--------|------------16---------|-----------------------| 
d|-----------------------|-----------------------|-----------------------|-----------------------| 
a|-----------------------|-----------------------|-----------------------|-----------------------| 
e|-----------------------|-----------------------|-----------------------|-----------------------| 
| 
E|-17--16-------------16-|-17--16-------------16-|-17--16-------------16~|-----------------------| 
b|---------17------17----|---------17------17----|---------17-----17-----|-----------------------| 
g|-------------18--------|-------------18--------|------------16---------|-----------------------| 
d|-----------------------|-----------------------|-----------------------|-----------------------| 
a|-----------------------|-----------------------|-----------------------|-----------------------| 
e|-----------------------|-----------------------|-----------------------|-----------------------| 
 
{SOLO} Sorry, only background guitar for now :( 
 
  G1: 
E|--------------------|-----------------|-----------------|-----------------| 
b|--------------------|-----------------|-----------------|-----------------| 
g|-6------------------|-6----------9----|-----------------|---------9-------| 
d|-6---6p4---4--6-----|-6-------9--9--7-|-----------------|-7-------9---9---| 
a|-4---4---4-4-44-----|-4-------9--7--7-|-----------------|-7-------7---9---| 
e|--------------------|---------7-----5-|--------------55-|-5-----------7---| 
 | 
E|--------------------|-----------------|-----------------|-----------------| 
b|--------------------|-----------------|-----------------|-----------------| 
g|-6------------------|-6----------9----|-----------------|-----------------| 
d|-6---6p4---4--6-----|-6-------9--9--7-|-----------------|-7-------7---6---| 
a|-4---4---4-4-44---44|-4-------9--7--7-|-----------------|-7-------7---7---| 
e|--------------------|---------7-----5-|--------------55-|-5-------5---4---| 
 
{HARMONY} Not much timing here, listen for yourself. 
 
  G1: 
E|--------------------|--------------------|---------------------|---------------------| 
b|-10-----10b12--9----|--------------------|------------------10-|-10--10b12-10-9~-----| 
g|------------------9-|--------------------|-11-----9-11--13-----|---------------------| 
d|--------------------|-11~----------------|---------------------|---------------------| 
a|--------------------|--------------------|---------------------|---------------------| 
e|--------------------|--------------------|---------------------|---------------------| 
 | 
E|------------------12-|-12~~~--\\\-4~------|---------------------|---------------------| 
b|-10~----9-10--12-----|--------------------|-9--10--9-7~---------|---------------------| 
g|---------------------|--------------------|---------------------|---------------------| 
d|---------------------|--------------------|---------------------|---------------------| 
a|---------------------|--------------------|---------------------|---------------------| 
e|---------------------|--------------------|---------------------|---------------------| 
 
  G2: 
E|--------------------|--------------------|---------------------|---------------------| 
b|--------------------|--------------------|---------------------|---------------------| 
g|-11-----11b13--9----|--------------------|------------------11-|-11--11b13-11-9------| 
d|-----------------11-|--------------------|-12----11-12--14-----|---------------------| 
a|--------------------|-11~----------------|---------------------|---------------------| 
e|--------------------|--------------------|---------------------|---------------------| 
 | 
E|---------------------|--------------------|---------------------|-14~-----------------| 
b|------------------14-|-14~~~--\\\-5~------|---------------------|-----------14~-------| 
g|-11~----9-11--13-----|--------------------|-9--11--9-8----------|-----11~--------11~--| 
d|---------------------|--------------------|---------------------|---------------------| 
a|---------------------|--------------------|---------------------|---------------------| 
e|---------------------|--------------------|---------------------|---------------------| 
 
  G3: 
E|------------------|------------------|------------------|------------------| 
b|------------------|------------------|------------------|------------------| 
g|------------------|-6-----6-6--6--6--|-7-----7-7--7--7--|------------------| 
d|-4-----4-4--4--4--|-6-----6-6--6--6--|-7-----7-7--7--7--|-7-----7-6--6--6--| 
a|-4-----4-4--4--4--|-4444444444444444-|-5555555555555555-|-7-----7-7--7--7--| 
e|-2222222222222222-|------------------|------------------|-5555555544444444-| 
 |  ..... . .. .. .    ..... . .. .. .    ..... . .. .. .    ..... . .. .. . 
E|------------------|------------------|------------------|------------------| 
b|------------------|------------------|------------------|------------------| 
g|------------------|-6-----6-6--6--6--|-4-----4-4--4--4--|-4-----4-4--4--4--| 
d|-4-----4-4--4--4--|-6-----6-6--6--6--|-4-----4-4--4--4--|-4-----4-4--4--4--| 
a|-4-----4-4--4--4--|-4444444444444444-|-2222222222222222-|-2222222222222222-| 
e|-2222222222222222-|------------------|------------------|------------------| 
    ..... . .. .. .    ..... . .. .. .    ..... . .. .. .    ..... . .. .. . 
 
{BRIDGE} 
 
  G1: (G2 is playing some short fill, can't hear it...) 
E|-----------------|-----------------| 
b|-----------------|-----------------| 
g|-----------------|-------8---------| 
d|----6--4-----4-6-|----6----6~------| 
a|----------6------|-----------------| 
e|-4---------------|-4---------------| 
 
{PIANO INTERLUDE} 
 
E|-----------------|---|---|---|---|---|---|-------------| 
b|-----------------|---|---|---|---|---|---|-------------| 
g|-6---------------|---|---|---|---|---|---|-444444444---| 
d|-6---------------|---|---|---|---|---|---|-444444444---| 
a|-4---------------|---|---|---|---|---|---|-222222222---| 
e|-----------------|---|---|---|---|---|---|-------------| 
 
{Chorus 3} 
 
  BOTH GUITARS: 
E|-----------------|-----------------|-----------------|-----------------| 
b|-----------------|-----------------|-----------------|-----------------| 
g|-----------------|-5---------------|-7---------------|-4-------5---7-7-| 
d|-2---------------|-5-------7-------|-7---------------|-4-------5---7-7-| 
a|-2---------------|-3-------7-------|-5---------------|-2-------3---5-5-| 
e|-0---------------|---------5-------|-----------------|-----------------| 
 | 
E|-----------------|-----------------|-----------------|-----------------| 
b|-----------------|-----------------|-----------------|-----------------| 
g|-----------------|-5---------------|-7---------------|-7-------7-------| 
d|-2---------------|-5---------------|-7---------------|-7-------7---2---| 
a|-2---------------|-3---------------|-5---------------|-5-------5---2---| 
e|-0---------------|-----------------|-----------------|-------------0---| 
 
{OUTRO Chorus} 
 
  BOTH GUITARS: 
E|-----------------|-----------------|-----------------|-----------------| 
b|-----------------|-----------------|-----------------|-----------------| 
g|-----------------|-7-------4-------|-----------------|-6-------7-------| 
d|-4---------------|-7-------4-------|-2---------------|-6-------7---2-2-| 
a|-4---------------|-5-------2-------|-2---------------|-4-------5---2-2-| 
e|-2---------------|-----------------|-0---------------|-------------0-0-| 
 | 
E|-----------------|-----------------|-----------------|-----------------| 
b|-----------------|-----------------|-----------------|-----------------| 
g|-----------------|-7---------------|-----------------|-----------------| 
d|-4---------------|-7---------------|-2---------------|-2---------------| 
a|-4---------------|-5---------------|-2---------------|-2---------------| 
e|-2---------------|-----------------|-0---------------|-0---------------| 
 
Repeat until fade out. 
 

	  

Search Paypal
auto scroll beats size up size down change color hide chords drawings
tab show chords e-chords YouTube Clip e-chords hide all tabs e-chords go to top tab