Eden

Isohel

Eden

tabs

by  ADALGOMES

save to print version add songbook text version e-mail correct tuner
chordsukulelecavacokeyboardtabbassdrumsharmonicaflute Guitar Pro
close

there isn't a video lesson for this song

chords

Isohel

Key:  G More
Isohel Key DD
Isohel Key D#D#
Isohel Key EE
Isohel Key FF(one step down)
Isohel Key F#F#(half step down)
Isohel Key GG(original key)
Isohel Key G#G#(half step up)
Isohel Key AA(one step up)
Isohel Key A#A#
Isohel Key BB
Isohel Key CC
Isohel Key C#C#
	  		 Primeira Parte 
  
        Ten tonne, ballast on my chest as I woke up 
E|------------------------------------------------------| 
B|------------------------------------------------------| 
G|---------1------1------1------1------1------1------1--| 
D|------------------------------------------------------| 
A|------------------------------------------------------| 
E|------0------0------0------0------0------0------0-----| 
  
        A heavy inhale for nights you stole                 oh oh 

E|-----------------------------------------------------------------| 
B|-----------------------------------------------------------------| 
G|--------1-----1-----1-----6----6----6----6----4----4h6--4--------| 
D|------------------------------------------------------------6----| 
A|-----------------------------------------------------------------| 
E|------0-----0-----0-----5----5----5----5----5----5---------------| 
  
E|----------------------------------------------------| 
B|----------------------------------------------------| 
G|---------1------1------1------1------1------1------1| 
D|----------------------------------------------------| 
A|----------------------------------------------------| 
E|------0------0------0------0------0------0------0---| 
  
        Fucked up, the balance in my head but it's all good 

E|---------------------------------------------------------| 
B|---------------------------------------------------------| 
G|--------1-----1-----1-----1-----1-----1-----1-----1-----1| 
D|---------------------------------------------------------| 
A|---------------------------------------------------------| 
E|-----0-----0-----0-----0-----0-----0-----0-----0-----0---| 
  
    I'll see you again another           (dream)               oh oh 

E|------------------------------------------------------------------------------------------------| 
B|------------------------------------------------------------------------------------------------| 
G|-----1-----1-----1----6-----6-----6-----6-----4----4h6---------1-----1-----1-----1-----1--------| 
D|--------------------------------------------------------6---------------------------------------| 
A|------------------------------------------------------------------------------------------------| 
E|--0-----0-----0-----5-----5-----5-----5-----5----5----------0-----0-----0-----0-----0-----------| 
  
Refrão 
  
    But I miss the way the sun streamed through my window 

E|--------------------------------------------------------------------------------| 
B|----------5----5----5----4----4----4----4----4----------------------------------| 
G|----1--------------------------------------------4---4---4---4---6---6---6---6--| 
D|--------------------------------------------------------------------------------| 
A|--------4----4----4----2----2----2----2----2------------------------------------| 
E|-0---------------------------------------------4---4---4---4---5---5---5---5----| 
  
         And I miss the way you almost held the tide 

E|-----------------------------------------------------------| 
B|-----------------------------------------------------------| 
G|----6----6-----1----1-----1-----1-----1-----1---4----4----4| 
D|-----------------------------------------------------------| 
A|-----------------------------------------------------------| 
E|--5----5----0----0-----0-----0-----0-----0----4----4----4--| 
  
       But still it's nice, dreaming that you're somewhere 

E|-------------------------------------------------------------------| 
B|-----------------------5-----5-----5-----5-----4----4----4----4----| 
G|-----4-----4-----4-------------------------------------------------| 
D|-------------------------------------------------------------------| 
A|--------------------4-----4-----4-----4------2----2----2----2------| 
E|---4-----4-----4---------------------------------------------------| 
  
              Feeling the same heat that I did 

E|------------------------------------------------------------------| 
B|------------------------------------------------------------------| 
G|----4----4----4-----4----6----6----6----6-----1-----1-----1-----1-| 
D|------------------------------------------------------------------| 
A|------------------------------------------------------------------| 
E|--4----4----4----4-----5----5----5----5----0-----0-----0-----0----| 
  
  
  
         Another time (I know I know) If invisible lines lead your way back to me 
E|----------------------------------------------------------------------------------| 
B|----------------------------------------------------------------------------------| 
G|------1-----1------4-----4-----4-----4-----4------6-----6-----6-----6-----6-----6-| 
D|----------------------------------------------------------------------------------| 
A|----------------------------------------------------------------------------------| 
E|---0-----0------4-----4-----4-----4-----4------5-----5-----5-----5-----5-----5----| 
  
                                             Walk the line 

E|----------------------------------------------------------------------------------| 
B|------------------------------------------------------4----4----4----4----4----4--| 
G|-------1------1------1------1------1------1------1--------------------------------| 
D|----------------------------------------------------------------------------------| 
A|----------------------------------------------------2----2----2----2----2----2----| 
E|-----0------0------0------0------0------0------0----------------------------------| 
  
Segunda Parte 
  
                 I said I'd walk you home but we still went out own way 

E|--------------------------------------------------------------------| 
B|--------------------------------------------------------------------| 
G|----1-------------------1-----1-----2-----2-----2-----2-----2-----2-| 
D|--------------------------------------------------------------------| 
A|--------------------------------------------------------------------| 
E|--0-------------------0-----0-----2-----2-----2-----2-----2-----2---| 
  
       The tears lost in rain on your cheekbones in silence 

E|--------------------------------------------------------------| 
B|--------------------------------------------------------------| 
G|--------2-----2-----2-----9-----9-----9-----9-----9-----9-----| 
D|--------------------------------------------------------------| 
A|--------------------------------------------------------------| 
E|-----2-----2-----2-----9-----9-----9-----9-----9-----9--------| 

      And I pulled my head out the darkness in your house 

E|----------------------------------------------------------| 
B|----------------------------------------------------------| 
G|--------9-----9-----8-----8-----8-----8-----8-----8-----8-| 
D|----------------------------------------------------------| 
A|----------------------------------------------------------| 
E|-----9-----9-----7-----7-----7-----7-----7-----7-----7----| 
  
      Can't stay 'til the morning, refracted my way out 

E|--------------------------------------------------------------| 
B|--------------------------------------------------------------| 
G|--------8-----8-----8-----6-----6-----6-----6-----6-----6-----| 
D|--------------------------------------------------------------| 
A|--------------------------------------------------------------| 
E|-----7-----7-----7-----5-----5-----5-----5-----5-----5--------| 
  
     From nightmares in my car, as I lay beside you 

E|-----------------------------------------------------| 
B|-----------------------------------------------------| 
G|--------6-----6-----6-----2-----2-----2-----2-----2--| 
D|-----------------------------------------------------| 
A|-----------------------------------------------------| 
E|-----5-----5-----5-----2-----2-----2-----2-----2-----| 
  
        And fucked up my timeline and twisted your end with 

E|-----------------------------------------------------| 
B|-----------------------------------------------------| 
G|--------2-----2-----2-----9-----9-----9-----9-----9--| 
D|-----------------------------------------------------| 
A|-----------------------------------------------------| 
E|-----2-----2-----2-----9-----9-----9-----9-----9-----| 
   
         So much still to go, as the sun sets behind you 

E|-----------------------------------------------------| 
B|-----------------------------------------------------| 
G|--------9-----9-----8-----8-----8-----8-----8-----8--| 
D|-----------------------------------------------------| 
A|-----------------------------------------------------| 
E|-----9-----9-----7-----7-----7-----7-----7-----7-----| 
   
      I can't let it go, you can't hold me, I can't always oh 

E|-----------------------------------------------------------| 
B|-----------------------------------------------------------| 
G|--------8-----8-----6-----6-----6-----6-----6-----6-----6--| 
D|-----------------------------------------------------------| 
A|-----------------------------------------------------------| 
E|-----7-----7-----5-----5-----5-----5-----5-----5-----5-----| 
  
Ponte 
  
    Oh, oh                Talk it out 

E|---------------------------------------| 
B|---------------------------------------| 
G|-----------------1---------------------| 
D|---------------------------------------| 
A|---------------------------------------| 
E|-----------------0---------------------| 
  
             Cut me off 

E|---------------------------------| 
B|---------------------------------| 
G|-----6---------------------------| 
D|---------------------------------| 
A|---------------------------------| 
E|-----5---------------------------| 
  
             Chalk it down 

E|---------------------------------| 
B|---------------------------------| 
G|-----9---------------------------| 
D|---------------------------------| 
A|---------------------------------| 
E|-----9---------------------------| 
   
            To my head, ba-balacning my head 

E|------------------------------------------| 
B|------------------------------------------| 
G|-----6------------------------------------| 
D|------------------------------------------| 
A|------------------------------------------| 
E|-----5------------------------------------| 
   
              Slow it down 

E|---------------------------------| 
B|---------------------------------| 
G|-----1---------------------------| 
D|---------------------------------| 
A|---------------------------------| 
E|-----0---------------------------| 
   
             Rise and fall 

E|---------------------------------| 
B|---------------------------------| 
G|-----6---------------------------| 
D|---------------------------------| 
A|---------------------------------| 
E|-----5---------------------------| 
  
             Chalk it down 

E|---------------------------------| 
B|---------------------------------| 
G|-----9---------------------------| 
D|---------------------------------| 
A|---------------------------------| 
E|-----9---------------------------| 
  
            To my head down, down 

E|---------------------------------| 
B|---------------------------------| 
G|-----6--------------8-----8-----8| 
D|---------------------------------| 
A|---------------------------------| 
E|-----5-----------------7-----7---| 
  
  
Refrão 2 
  
             And I miss the way the sun streamed through my window 

E|----------------------------------------------------------------------------------| 
B|----------------------------------------------------------------------------------| 
G|------8-----8------9-----9-----9-----8-----8------8-----8-----4-----4-----4-----6-| 
D|----------------------------------------------------------------------------------| 
A|----------------------------------------------------------------------------------| 
E|---7-----7------9-----9-----9-----7-----7------7-----7-----4-----4-----4-----5----| 
   
             And I miss the way you almost held the tide (down, down, down) 

E|----------------------------------------------------------------------------| 
B|----------------------------------------------------------------------------| 
G|------6-----6------1-----1-----1-----1-----1------4-----4-----4-----4-----4-| 
D|----------------------------------------------------------------------------| 
A|----------------------------------------------------------------------------| 
E|---5-----5------0-----0-----0-----0-----0------4-----4-----4-----4-----4----| 
   
    But still it's nice         dreaming of you somewhere 

E|----------------------------------------------------------------------------| 
B|----------------------------------------------------------------------------| 
G|------4-----4------9-----9-----9-----9-----9------8-----8-----8-----8-----4-| 
D|----------------------------------------------------------------------------| 
A|----------------------------------------------------------------------------| 
E|---4-----4------9-----9-----9-----9-----9------7-----7-----7-----7-----4----| 
  
              Feeling the same heat that I did 

E|------------------------------------------------------------------------| 
B|------------------------------------------------------------------------| 
G|--------4-----4-----4-----6-----6-----6-----1------1-----1-----1-----1--| 
D|------------------------------------------------------------------------| 
A|------------------------------------------------------------------------| 
E|------4-----4-----4-----5-----5-----5-----0-----0-----0-----0-----0-----| 
   
          No fear no fall  (I know, I know, I know) 

E|------------------------------------------------| 
B|------------------------------------------------| 
G|--------1-----1-----4-----4-----4-----4-----4---| 
D|------------------------------------------------| 
A|------------------------------------------------| 
E|------0-----0-----4-----4-----4-----4-----4-----| 
   
        If invisible lines lead your way back to me 

E|------------------------------------------------------------------------| 
B|------------------------------------------------------------------------| 
G|--------4-----4-----4-----6-----6-----6-----6------6-----6-----6-----6--| 
D|------------------------------------------------------------------------| 
A|------------------------------------------------------------------------| 
E|------4-----4-----4-----5-----5-----5-----5-----5-----5-----5-----5-----| 
  
         Still I got nothing, woah 

E|------------------------------------------------------------------------| 
B|------------------------------------------------------------------------| 
G|--------6-----6-----1-----1-----1-----1-----1------1-----1-----1-----1--| 
D|------------------------------------------------------------------------| 
A|------------------------------------------------------------------------| 
E|------5-----5-----0-----0-----0-----0-----0-----0-----0-----0-----0-----| 
  
Final 
  
                                                      Comme les 

E|------------------------------------------------------------------------| 
B|------------------------------------------------------------------------| 
G|--------8-----8-----8-----8---------8----------8-----------8------------| 
D|------------------------------------------------------------------------| 
A|------------------------------------------------------------------------| 
E|------7-----7-----7-----7------7--------7-----------7-------------------| 
  
            Nuits quand je ne savais pas enore 

E|-----------------------------------------------------------------------| 
B|-----------------------------------------------------------------------| 
G|--------6----6----6----6----6----8----8----9----9----9----9----9----9--| 
D|-----------------------------------------------------------------------| 
A|-----------------------------------------------------------------------| 
E|------5----5----5----5----5----7----7----9----9----9----9----9----9----| 
   
        Comme les nuits qui m'ont appris à aimer les           adieux 

E|---------------------------------------------------------------------------| 
B|---------------------------------------------------------------------------| 
G|--------9----8----6----6----6----6----6----6----6----6----1----1----1----1-| 
D|---------------------------------------------------------------------------| 
A|---------------------------------------------------------------------------| 
E|------9----7----5----5----5----5----5----5----5----5----0----0----0----0---| 
  
              Comme les nuits quand on croyais que tout irais bien 
E|-------------------------------------------------------------------| 
B|-------------------------------------------------------------------| 
G|----1----1----1----1----6----6----6----6----6----8----8----9----9--| 
D|-------------------------------------------------------------------| 
A|-------------------------------------------------------------------| 
E|--0----0----0----0----5----5----5----5----5----7----7----9----9----| 
   
            Mais cela         n'a pas                   d'importance car les nuits 

E|---------------------------------------------------------------------------------| 
B|---------------------------------------------------------------------------------| 
G|--------8----8----2----2----4----4----6----6----6----6----6----6----6----6----1--| 
D|---------------------------------------------------------------------------------| 
A|---------------------------------------------------------------------------------| 
E|------7----7----2----2----4----4----5----5----5----5----5----5----5----5----0----| 
   
                        Bruyantes/brillantes Bruyantes/brillantes Bruyantes/brillantes 

E|------------------------------------------------------------------------------------| 
B|------------------------------------------------------------------------------------| 
G|----1----1----1----1----1----1----1----4----4----4----4----4----4----4----4----6----| 
D|------------------------------------------------------------------------------------| 
A|------------------------------------------------------------------------------------| 
E|--0----0----0----0----0----0----0----4----4----4----4----4----4----4----4----5------| 
  
                       Sont toutes pareilles à la fin 

E|-----------------------------------------------------------------------| 
B|-----------------------------------------------------------------------| 
G|--------6----6----6----6----6----8----8----8----8----8-----------------| 
D|-----------------------------------------------------------------------| 
A|-----------------------------------------------------------------------| 
E|------5----5----5----5----5----7----7----7----7----7-------------------| 
		  

See also:

tabs Deep Purple - Burn tabs Deep Purple - Lazy tabs Deep Purple - Deep Purple - Smoke On The Water tabs Deep Purple - Stormbringer tabs Deep Purple - Demon's Eye tabs Albert Hammond Jr - Holiday
e-chords

Other versions:

tabs Eden - Isohel
auto scroll beats size up size down change color hide chords drawings
tab show chords e-chords YouTube Clip e-chords hide all tabs e-chords go to top tab

share