Eddie Van Halen

You really got me

Eddie Van Halen

tabs Beginner beginner

by  2U4UBYU

save to print version add songbook text version e-mail correct tuner
chordsukulelecavacokeyboardtabbassdrumsharmonicaflute Guitar Pro
close

there isn't a video lesson for this song

chords

You really got me

	  		x\ indicates pick scrape throughout 
 
Intro 
  Q=140 
 4/4 
  Gtr I 
  H    Q.   E   E E E E Q  S S E   E E E E Q  S S E 
|-------------|------------------|------------------| 
|-------------|------------------|------------------| 
|-------------|-2-2---2----x-x---|-2-2---2----x-x---| 
|-------------|-2-2---2----x-x---|-2-2---2----x-x---| 
|-------------|-0-0---0----x-x---|-0-0---0----x-x---| 
|-----------3-|-----3----------3-|-----3----------3-| 
 
 
  E E E E Q  S S E   E E E  E  +Q.   E   E E E E E E E E 
|------------------|-------------------|---------x-x-x---| 
|------------------|-------(2)---------|---------x-x-x---| 
|-2-2---2----x-x---|-2-2----2--(2)-----|-2-2---2-x-x-x---| 
|-2-2---2----x-x---|-2-2----2--(2)-----|-2-2---2-x-x-x---| 
|-0-0---0----x-x---|-0-0----0--(0)-----|-0-0---0-x-x-x---| 
|-----3----------3-|-----3-----------3-|-----3---x-x-x-3-| 
 
 
  E E E E E E E E   E E E E E E E E   E E E   E +E  a  E  +Q 
|---------x-x-x---|---------x-x-x---|---------------------------| 
|---------x-x-x---|---------x-x-x---|---------------------------| 
|-2-2---2-x-x-x---|-2-2---2-x-x-x---|-2-2-----------------------| 
|-2-2---2-x-x-x---|-2-2---2-x-x-x---|-2-2-----------------------| 
|-0-0---0-x-x-x---|-0-0---0-x-x-x---|-0-0-----------------------| 
|-----3---x-x-x-3-|-----3---x-x-x-3-|-----3b5-3-(3)-3s15-(15)\--| 
 
 
 Verse 1 
  PM----------------------------------------| 
  E E E E Q.   E   E E E E Q  S S E   E E E E E a E    +Q 
|----------------|------------------|----------------------| 
|----------------|------------------|----------------------| 
|----------------|------------------|-------------4pb5r(4)-| 
|-2-2---2--------|-2-2---2----x-x---|-2-2---2---x----------| 
|-0-0---0--------|-0-0---0----x-x---|-0-0---0--------------| 
|-----3--------3-|-----3----------3-|-----3----------------| 
 
 
                                      PM----------------------------| 
   e   e   e   e   e   e   e     e    e E E E Q.   E   E E E E Q  E E 
|-----------------------------------|----------------|----------------| 
|-----------------------------------|----------------|----------------| 
|-{4}-{2}---------------------------|----------------|----------------| 
|---------{4}-{3}-{2}---------------|---2---2--------|-2-2---2----x---| 
|---------------------{4}-{2}b4-{2}-|-0-0---0--------|-0-0---0----x---| 
|-----------------------------------|-----3--------3-|-----3--------3-| 
 
 
  PM----|                                                         PM-| 
  E E E E E  Q.          e   e   e   e   e   e  e e   E E E E Q   E  E 
|---------------------|-----------------------------|------------------| 
|---------------------|-----------------------------|------------------| 
|-----------{7}b7.5---|-{5}-{7}---------------------|------------------| 
|-2-2---2-------------|---------{7}-{5}-------------|-4-4---4--------2-| 
|-0-0---0-------------|-----------------{7}-{5}-3h5-|-2-2p0-2----(0)-0-| 
|-----3---------------|-----------------------------|------------------| 
                          random harmonics 
 
  PM--------------------------------------------------| 
  E E E E Q.   E   E E E E Q   E  E   E E E E +Q    E E 
|----------------|------------------|-------------------| 
|----------------|------------------|-------------------| 
|----------------|------------(0)---|-------------------| 
|-4-4-2-4------2-|-4-4-2-4--------2-|-4-4---4-(4)/--7s8-| 
|-2-2-0-2------0-|-2-2-0-2--------0-|-2-2-0-2-(2)/--5s6-| 
|----------------|------------------|-------------------| 
 
 
                 PM--------|          PM--------| 
  E E E E +E   E E E   E E E E +E   E E E   E E E E +E   E E E 
|--------------------|--------------------|--------------------| 
|--------------------|--------------------|--------------------| 
|-9-9-7-9-(9)\-------|-------9-(9)\-------|-------9-(9)\-----7-| 
|-9-9-7-9-(9)\-----7-|-9-9-7-9-(9)\-----7-|-9-9-7-9-(9)\-----7-| 
|-7-7-5-7-(7)\---x-5-|-7-7-5-7-(7)\---x-5-|-7-7-5-7-(7)\---x-5-| 
|--------------------|--------------------|--------------------| 
 
 
 Chorus 
  E E E E E E     E E    E E E E     +Q   Q    E E E E +Q    S S E 
|----------------------|---------------------|---------------------| 
|----------------------|---------------------|-----7-9-(9)\--------| 
|----------------------|-------9b12==(9)r=9--|-9-9-7-9-(9)\--------| 
|-9-9-7-9---------2----|-9-9-7---------------|-9-9-7-9-(9)\--------| 
|-7-7-5-7-----------5/-|-7-7-5---------------|-7-7-5-7-(7)\--------| 
|---------0-3b3.5------|---------------------|---------------x-x-0-| 
 
 
                               PM----------------------------| 
  W          Q   Q   Q   Q     E E E E Q.   E   E E E E Q.   E 
|----------|-----------------|----------------|-----------------| 
|----------|-----------------|----------------|-----------------| 
|-7--------|-x\--x\----------|----------------|-----------------| 
|-7--------|-x\--x\--x-------|----------------|-2-2---2---------| 
|-5--------|---------x-------|-0-0---0--------|-0-0---0---------| 
|----------|------------15\--|-----3--------3-|-----3--------3--| 
 
 
  PM----|                                           PM----|      PM 
                             |-3-| |-3-| 
  E E E E E Q      +E    +E  S S S E E E Q.    E    E E E E Q.   E 
|----------------------|--------------------------|----------------| 
|-----------8b11===(8)r|=(8)----------------------|----------------| 
|----------------------|-----7h9p7-6--------------|----------------| 
|-2-2---2--------------|-------------7------------|----------------| 
|-0-0---0--------------|---------------7-5b7---7\-|-0-0---0--------| 
|-----3----------------|--------------------------|-----3--------3-| 
 
 
  PM----|                              T 
                             |-3-| |-3-| 
  E E E E Q.   E   E E E E E S S S E E E 
|----------------|-----------------------| 
|----------------|-----------5h8p5h8p5-8s| 
|----------------|-----------------------| 
|----------------|-2-2-------------------| 
|-0-0---0--------|-0-0---0---------------| 
|-----3--------3-|-----3-----------------| 
 
 
               T            T 
   |-3-| |--3--| 
   S S S S +S  S S +S  S S  E  E  Q 
|--------------------------------------| 
|-12p8p5h8-(8)p5-8-(8)p5h8-12s17-------| 
|--------------------------------------| 
|--------------------------------------| 
|--------------------------------------| 
|--------------------------------12\---| 
 
 
                  PM--------|      PM--------|          PM 
  E E E E +Q    E E   E E E E Q.   E   E E E E +E   E E E 
|-------------------|----------------|--------------------| 
|-------------------|----------------|--------------------| 
|-------------------|----------------|--------------------| 
|-4-4---4-(4)\----2-|-4-4-2-4------2-|-4-4-2-4-(4)\-----2-| 
|-2-2-0-2-(2)\----0-|-2-2-0-2------0-|-2-2-0-2-(2)\---0-0-| 
|-------------------|----------------|--------------------| 
 
 
  PM|                               PM--------|         PM| 
  E E E E +Q    E E   E E E E +Q    E E   E E E E +Q    E E 
|-------------------|-------------------|-------------------| 
|-------------------|-------------------|-------------------| 
|-4-4-2-4-(4)/----7-|-9-9-7-9-(9)\------|-------9-(9)\------| 
|-4-4-2-4-(4)/----7-|-9-9-7-9-(9)\------|-9-9-7-9-(9)\----7-| 
|-2-2-0-2-(2)/----5-|-7-7-5-7-(7)\--x-5-|-7-7-5-7-(7)\--x-5-| 
|-------------------|-------------------|-------------------| 
 
 
                     Chorus 
                PM--------|         PM--------| 
  E E E E +Q    E E   E E E E +Q    E E   E E E E +E   E  Q 
|-------------------|-------------------|--------------------| 
|-------------------|-------------------|--------------------| 
|-9-9-7-9-(9)\------|-9-9-7-9-(9)\------|-9-9-x-9-(9)--------| 
|-9-9-7-9-(9)\----7-|-9-9-7-9-(9)\--x-7-|-9-9-x-9-(9)-<7>----| 
|-7-7-5-7-(7)\--x-5-|-7-7-5-7-(7)\--x-5-|-7-7-x-7-(7)-----0--| 
|-------------------|-------------------|--------------------| 
 
                                          Guitar Solo (with phaser) 
  E E E E +Q   Q    W          +E  E  Q   Q  E    S S 
|-----------------|----------|------------------------| 
|-----------------|----------|------------------------| 
|-9-9-7-9-(9)-----|-7--------|-(7)-----------7b9==7-7-| 
|-9-9-7-9-(9)-----|-7--------|-(7)-x\-x\--x-----------| 
|-7-7-5-7-(7)-----|-5--------|-(5)-x\-x\--x-----------| 
|--------------7--|----------|------------------------| 
 
 
                                                             T       T 
                                                             |-----6-----| 
  S S S S E   S S E S S   S S E   E.  S S    +E  +S  S E.    S  S S  S S S 
|-5-5-5-5-----5-5-5-5-----5-5-5-|-----5--------------------(10)------------| 
|-5-5-5-5-----5-5-5-5-----5-5-5-|-------------------------------5h8-10p5h8-| 
|---------7b9---------7b9-------|-7b9---7b9==(7)r(7)p5-7b9-----------------| 
|-------------------------------|------------------------------------------| 
|-------------------------------|------------------------------------------| 
|-------------------------------|------------------------------------------| 
 
 
   T      T      T      T      T      T 
   |----6-----|  |----6-----|  |----6-----| 
   S S S  S S S  S S S  S S S  S S S  S S S S E. 
|--------------------------------------------------| 
|-10p5h8-10p5h8-10p4h7-10p4h7-10p3h6-10p3h6-2------| 
|---------------------------------------------4b6==| 
|--------------------------------------------------| 
|--------------------------------------------------| 
|--------------------------------------------------| 
 
 
       T 
  +E   E  +E   S +S  Q  E.  S 
|--------------------------17-| 
|-----------------------------| 
|-(4)-12-(12)rp4-(4)p2s12-----| 
|-----------------------------| 
|-----------------------------| 
|-----------------------------| 
 
 
                                                             ~~~~~ 
                                                                     |--3--| 
   Q      E  Q      E  Q        S  S  S  S  S  S     +S   S  Q       E  E  E 
|--------17--------17--------|-17--------------------------------------------| 
|-20b24-----20b24-----20b24--|----20p17----17-----------------------------17-| 
|----------------------------|----------19----19b21r(19)p17-19b21------14----| 
|----------------------------|-------------------------------------/16-------| 
|----------------------------|-----------------------------------------------| 
|----------------------------|-----------------------------------------------| 
 
 
   +E   E  E      E  E      E       E   S  S 
|--------------------------------------------| 
|-(17)-17-17pb20-17-17pb20-17b22==(22)p17p14-| 
|--------------------------------------------| 
|--------------------------------------------| 
|--------------------------------------------| 
|--------------------------------------------| 
 
 
                          ~~~~~~~~ 
   S  E      +S   S   E   S  +Q   Q 
|------------------------------------| 
|------------------------------------| 
|-17-17pb19r(17)-14-(17)-14-(14)s=5--| 
|-------------------------x----------| 
|------------------------------------| 
|------------------------------------| 
 
                                    * turn neck pickup volume off turn vol  
                                     on/off by rapidly switching pickup switch 
                                     from neck to bridge 
    Q       +Q     H        H      +S  S   S  S   S  S   S  S 
|------------------------|------------------------------------| 
|------------------------|------------------------------------| 
|-/10b12===(10)--(10)----|-12-----(12)---(12)---(12)---(12)---| 
|-----------------(9)----|-(9)-----(9)----(9)----(9)----(9)---| 
|------------------------|------------------------------------| 
|------------------------|------------------------------------| 
 
 
                                |-------6--------| 
    S  S   S  S   S  S   S  S   S  S   S  S   S  S   T  T   T  T   T  T   T  T 
|------------------------------------------------------------------------------| 
|------------------------------------------------------------------------------| 
|-(12)---(12)---(12)---(12)---(12)---(12)---(12)---(12)---(12)---(12)---(12)---| 
|--(9)----(9)----(9)----(9)----(9)----(9)----(9)----(9)----(9)----(9)----(9)---| 
|------------------------------------------------------------------------------| 
|------------------------------------------------------------------------------| 
 
 
    |-------6--------| 
    S  S   S  S   S  S Q   E  E +Q 
|--------------------------------------| 
|--------------------------------------| 
|-(12)---(12)---(12)-------------------| 
|--(9)----(9)----(9)---x\--x\----------| 
|----------------------x\--x\-9-(9)\---| 
|--------------------------------------| 
 
  phaser off 
  Wx7          Q.   E E E E E 
|------------|----------------| 
|------------|----------------| 
|------------|------5---------| 
|------------|----------5---7-| 
|------------|----------------| 
|------------|----------------| 
 
 
  +E   E H.        W          H.      E E   Q  Q   Q  Q 
|----------------|----------|-------------|----------------| 
|----------------|----------|-------------|----------------| 
|----------------|----------|-------------|----------------| 
|-(7)\-----------|----------|-------------|----------------| 
|----------------|----------|-----------xs|=xs=x-----------| 
|----------------|----------|-------------|-------17s=5\---| 
 
 
  E E E E Q  E E   E E E E +Q   E E   E E E E +Q    E E 
|----------------|------------------|-------------------| 
|----------------|------------------|-------------------| 
|----------------|------------------|-------------------| 
|-4-4-2-4--------|-4-4-2-4-(4)----2-|-4-4-2-4-(4)\----2-| 
|-2-2-0-2----x-0-|-2-2-0-2-(2)----0-|-2-2-0-2-(2)\----0-| 
|----------------|------------------|-----------------0-| 
 
 
  E E E E +Q    Q    E E E E +Q    E E   E E E E +Q    E E 
|------------------|-------------------|-------------------| 
|------------------|-------------------|-------------------| 
|---------------7--|-9-9-7-9-(9)\----7-|-------9-(9)\------| 
|-4-4-2-4-(4)/--7--|-9-9-7-9-(9)\----7-|-9-9-7-9-(9)\----7-| 
|-2-2-0-2-(2)/--5--|-7-7-5-7-(7)\----5-|-7-7-5-7-(7)\--x-5-| 
|------------------|-------------------|-------------------| 
 
 
                                                 ~~~~~~~~ 
  E E E E +Q    E E   E E E E E E     E E   Q  E E   +Q   +Q 
|-------------------|---------------------|---------------------| 
|-------------------|---------------------|---------------------| 
|-9-9-7-9-(9)\----7-|-9-9-7-9-------------|-9-------------------| 
|-9-9-7-9-(9)\--x-7-|-9-9-7-9-----------x-|-9--7----------------| 
|-7-7-5-7-(7)\--x-5-|-7-7-5-7---------2-x-|-7--5-7b9-(7)--(7)\--| 
|-------------------|---------0-3b3.5-----|---------------------| 
 
 
  E E E E     +Q.   E   E E E E E E. E.    Q   E   E  Q      S  S  S  S 
|---------------------|-----------------|---------12--------12----------| 
|---------------------|-----------------|------------15b17-----12h15p12-| 
|-9-9-7-9b12==(9)-----|-9---9---9----x--|-12----------------------------| 
|-9-9-7---------------|-9---9---9----x--|-12--12/-----------------------| 
|-7-7-5---------------|-7---7---7----x--|-------------------------------| 
|-------------------0-|-----------------|-------------------------------| 
 
 
   |------6-------|  |------6-------|     |------6-------|  |------6-------| 
   S  S  S  S  S  S  S  S  S  S  S  S  a  S  S  S  S  S  S  S  S  S  S  S  S 
|----------12----------------------------------------------------------------| 
|----12h15----12h15p12-------------------------------------------------------| 
|-14-------------------15-14p12----14----11h12p11----11----------------------| 
|-------------------------------14----14----------14----12-14-11h12p11----11-| 
|----------------------------------------------------------------------14----| 
|----------------------------------------------------------------------------| 
 
 
   E  E E E H      H.        Q 
|----------------|--------------*| 
|----------------|--------------*| 
|----------------|--------------*| 
|----------------|--------------*| 
|-12s11s9s7s5s===|=2b5==========*| 
|----------------|-----------0--*| 
 
********* 
You found it at E-Chords 
Submitted By: David Campbell 
Ontario Canada  
 

		  

Full key step upFull key step up
Half key step upHalf key step up
Half key step downHalf key step down
Full key step downFull key step down
hide glossary

See also:

tabs Mason Williams - Classical Gas tabs UFO - Doctor Doctor tabs Lynyrd Skynyrd - Simple Man tabs Lynyrd Skynyrd - That smell (full song) tabs Johnny Cash - Ghost Riders In The Sky (solo) tabs Lynyrd Skynyrd - Simple Man (ver. 2)
e-chords

Other versions:

tabs Eddie Van Halen - You really got me tabs The Kinks - You Really Got Me tabs Van Halen - You Really Got Me
auto scroll beats size up size down change color hide chords drawings
tab show chords e-chords YouTube Clip e-chords hide all tabs e-chords go to top tab

share