Echosmith

home > Echosmith

18 Tab

Echosmith

Difficulty: nolevelnolevel

by hebealmeida

tuner correct add songbook print version text version save to e-mail
chordsukulelecavacokeyboardtabbassdrumsharmonicsflute Guitar Pro
chords

18

Key:  D More
18 Key AA
18 Key A#A#
18 Key BB
18 Key CC(one step down)
18 Key C#C#(half step down)
18 Key DD(original key)
18 Key D#D#(half step up)
18 Key EE(one step up)
18 Key FF
18 Key F#F#
18 Key GG
18 Key G#G#
  		

Intro (0:03-0:20) 

e|--------------------------------|--------------------------------| 
B|------------10------------------|------------10------------------| 
G|12--10--------12--1210------1012|--1210--------12--1210------10--| x4 
D|------------------------12------|------------------------12------| 
A|--------------------------------|--------------------------------| 
E|--------------------------------|--------------------------------| 
  1   &   2   &   3   &   4   &    1   &   2   &   3   &   4   & 


verse 1 (0:20-0:54) 

e|--------------------------------|--------------------------------| 
B|--------------------------------|--------------------------------| 
G|--------------------------------|--------------------------------| 
D|--------------------------------|--------------------------------| 
A|--------------------------------|--------------------------------| 
E|--------------------------------|--------------------------------| 
  1   &   2   &   3   &   4   &    1   &   2   &   3   &   4   & 

e|--------------------------------|--------------------------------| 
B|--------------------------------|------------10------------------| 
G|--------------------------------|----10--12----------------------| 
D|------------------------------10|12------------12----------------| 
A|--------------------------------|--------------------------------| 
E|--------------------------------|--------------------------------| 
  1   &   2   &   3   &   4   &    1   &   2   &   3   &   4   & 

e|--------------------------------|--------------------------------| 
B|--------------------------------|--------------------------------| 
G|--------------------------------|--------------------------------| x6 
D|--------------------------------|--------------------------------| 
A|--------------------------------|--------------------------------| 
E|--------------------------------|--------------------------------| 
  1   &   2   &   3   &   4   &    1   &   2   &   3   &   4   & 


Chorus (0:54-1:11) 

e|--------------------------------|--------------------------------| 
B|------------10------------------|------------10------------------| 
G|12--10--------12--1210------1012|--1210--------12--1210------10--| x4 
D|------------------------12------|------------------------12------| 
A|--------------------------------|--------------------------------| 
E|--------------------------------|--------------------------------| 
  1   &   2   &   3   &   4   &    1   &   2   &   3   &   4   & 


verse 2 (1:11-1:45) 

e|--------------------------------|--------------------------------| *** 
B|--------------------------------|--------------------------------|   * 
G|--------------------------------|--------------------------------|   * 
D|--------------------------------|--------------------------------|   * 
A|--------------------------------|--------------------------------|   * 
E|--------------------------------|--------------------------------|   * 
  1   &   2   &   3   &   4   &    1   &   2   &   3   &   4   &       * (x2) 
                                                                       * 
e|--------------------------------|--------------------------------|   * 
B|--------------------------------|------------10------------------|   * 
G|--------------------------------|----10--12----------------------|   * 
D|------------------------------10|12------------12----------------|   * 
A|--------------------------------|--------------------------------|   * 
E|--------------------------------|--------------------------------| *** 
  1   &   2   &   3   &   4   &    1   &   2   &   3   &   4   & 

e|--------------------------------|--------------------------------| 
B|--------------------------------|--------------------------------| 
G|--------------------------------|--------------------------------| x4 
D|--------------------------------|--------------------------------| 
A|--------------------------------|--------------------------------| 
E|--------------------------------|--------------------------------| 
  1   &   2   &   3   &   4   &    1   &   2   &   3   &   4   & 


Chorus (1:45-2:02) 

e|--------------------------------|--------------------------------| 
B|------------10------------------|------------10------------------| 
G|12--10--------12--1210------1012|--1210--------12--1210------10--| x4 
D|------------------------12------|------------------------12------| 
A|--------------------------------|--------------------------------| 
E|--------------------------------|--------------------------------| 
  1   &   2   &   3   &   4   &    1   &   2   &   3   &   4   & 


Bridge (2:02-2:23) 

e|--------------------------------|--------------------------------| 
B|--------------------------------|--------------------------------| 
G|--------------------------------|--------------------------------| x5 
D|--------------------------------|--------------------------------| 
A|--------------------------------|--------------------------------| 
E|--------------------------------|--------------------------------| 
  1   &   2   &   3   &   4   &    1   &   2   &   3   &   4   & 


Chorus (2:23-2:57) 

e|--------------------------------|--------------------------------| 
B|------------10------------------|------------10------------------| 
G|12--10--------12--1210------1012|--1210--------12--1210------10--| x7 
D|------------------------12------|------------------------12------| 
A|--------------------------------|--------------------------------| 
E|--------------------------------|--------------------------------| 
  1   &   2   &   3   &   4   &    1   &   2   &   3   &   4   & 

e|--------------------------------|--------------------------------| 
B|------------10------------------|--------------------------------| 
G|12--10--------12--1210----------|--------------------------------| 
D|--------------------------------|12------------------------------| 
A|--------------------------------|--------------------------------| 
E|--------------------------------|--------------------------------| 
  1   &   2   &   3   &   4   &    1   &   2   &   3   &   4   & 
	  

Search Paypal
auto scroll beats size up size down change color hide chords drawings
tab show chords e-chords YouTube Clip e-chords hide all tabs e-chords go to top tab