Ebba Grön

Profit

Ebba Grön

tabs

by  MAR-GOBBO

save to print version add songbook text version e-mail correct tuner
chordsukulelecavacokeyboardtabbassdrumsharmonicaflute Guitar Pro
close

there isn't a video lesson for this song

chords

Profit

	  		
Intro 

e|-----------------------------------------------------------------------------| 
B|-----------------------------------------------------------------------------| 
G|---------------------------(b9)(b9)(b9)(b9)(b9)(b9)(b9)(b9)------------------| 
D|---------------------------(b9)(b9)(b9)(b9)(b9)(b9)(b9)(b9)------------------| 
A|--7-7-7-7-7-7-7-7-7-7-7-7--7-7-7-7-7-7-7-7-----------------------------------| 
E|--5-5-(b9)5-5-5-5-5-(b9)5-5-5------------------------------------------------| x2 

Or something like that. 
The first part is mostly just how I to put your hands, so if you don't get it, just  
listen to the song. It's pretty simple. 

Verse 

e|----------------------------------------------------------------------| 
B|----------------------------------------------------------------------| 
G|---------5-5-5-5---------5-5-5-5-----------5-5-5-5---------5-5-5-5----| 
D|-7---7---5-5-5-5-7---7---5-5-5-5---7---7---5-5-5-5-7---7---5-5-5-5----| 
A|-7---7---3-3-3-3-7---7---3-3-3-3---7---7---3-3-3-3-7---7---3-3-3-3----| 
E|-5---5-----------5---5-------------5---5-----------5---5--------------| 

e|----| 
B|----| 
G|-(b9)-| 
D|-(b9)-| 
A|-7--| 
E|----| Play it about 25 times or something.  x2 


Chorus 

e|----------------------------| 
B|----------------------------| 
G|-5-5-5-5--------------------| 
D|-5-5-5-5--5-5-5-5--3-3-3-3--| 
A|-3-3-3-3--5-5-5-5--3-3-3-3--| 
E|----------3-3-3-3?-1-1-1-1--| 



e|----| 
B|----| 
G|-7--| 
D|-7--| 
A|-5--| 
E|----| Play this about 20 times or something   x2 


Verse 

e|----------------------------------------------------------------------| 
B|----------------------------------------------------------------------| 
G|---------5-5-5-5---------5-5-5-5-----------5-5-5-5---------5-5-5-5----| 
D|-7---7---5-5-5-5-7---7---5-5-5-5---7---7---5-5-5-5-7---7---5-5-5-5----| 
A|-7---7---3-3-3-3-7---7---3-3-3-3---7---7---3-3-3-3-7---7---3-3-3-3----| 
E|-5---5-----------5---5-------------5---5-----------5---5--------------| 

e|----| 
B|----| 
G|-(b9)-| 
D|-(b9)-| 
A|-7--| 
E|----| Play it about 25 times or something.  x2 



Chorus 

e|----------------------------| 
B|----------------------------| 
G|-5-5-5-5--------------------| 
D|-5-5-5-5--5-5-5-5--3-3-3-3--| 
A|-3-3-3-3--5-5-5-5--3-3-3-3--| 
E|----------3-3-3-3?-1-1-1-1--| 



e|----| 
B|----| 
G|-7--| 
D|-7--| 
A|-5--| 
E|----| Play this about 20 times or something   x2 


Outro thingy 

e|-------------------------------------------------------------| 
B|-------------------------------------------------------------| 
G|-------------------------------------------------------------| 
D|--7-\--------------------------------------------------------| 
A|--7-\--------------------------------------------------------| 
E|--5-\--------------------------------------------------------| 

 
		  

See also:

tabs The Hives - Main Offender tabs The Hives - Aka I-d-i-o-t tabs The Hives - Untutored Youth tabs The Hives - Die All Right (ver. 4) tabs The Hives - Hate To Say I Told You So (ver. 3) tabs The Hives - Hate To Say I Told You So (ver. 2)
e-chords

Other versions:

tabs Ebba Grön - Profit tabs Clutch - Profits Of Doom
auto scroll beats size up size down change color hide chords drawings
tab show chords e-chords YouTube Clip e-chords hide all tabs e-chords go to top tab

share