Earl Sweatshirt

Faucet

Earl Sweatshirt

tabs

by  TARIKIKE

save to print version add songbook text version e-mail correct tuner
chordsukulelecavacokeyboardtabbassdrumsharmonicaflute Guitar Pro
close

there isn't a video lesson for this song

chords

Faucet

	  		



~ = let it ring ("I hope my phone break, let it ring") 




intro 

e|---------------10--8-------------------| 
B|---------------------10--10------------| 
G|--7~--7~--7~-----------10-----10--7~---| 
D|---------------------------------------| 
A|---------------------------------------| 
E|---------------------------------------| 



verse 

e|---------------------------------------| 
B|---------------------------------------| 
G|---------------------------------------| 
D|--7~--7~--7~----9~---------------------| 
A|---------------------------------------| 
E|---------------------------------------| 
                                                       x2 
                                                      
e|---------------10--8-------------------| 
B|---------------------10--10------------| 
G|--7~--7~--7~-----------10-----10--7~---|  
D|---------------------------------------| 
A|---------------------------------------| 
E|---------------------------------------| 



Pre-Chorus (1:06) 


e|-----------------------------------| 
B|-----------------------------------| 
G|-----------------------------------| 
D|--7--7--7--------------------------| 
A|-----------------------------------| 
E|-----------------------------------| 


Chorus 


e|---------------------------------------| 
B|---------------------------------------|                first time 
G|---------------------------------------| 
D|--7~--7~--7~----9~---------------------| 
A|---------------------------------------| 
E|---------------------------------------| 

           
e|---------------10--8-------------------| 
B|---------------------10--10------------|                second time 
G|--7~--7~--7~-----------10-----10--7~---|  
D|---------------------------------------| 
A|---------------------------------------| 
E|---------------------------------------| 



verse 

e|-----------------------------------| 
B|-----------------------------------| 
G|-----------------------------------| 
D|--7~--7~--7~----9~-----------------| 
A|-----------------------------------| 
E|-----------------------------------| 

                                          
little variation at 1:45 

e|--------------------------10--8-----------------| 
B|--------------------------------10--10----------| 
G|----------------------------------10-----10--7~-| 
D|--7-7~---------7~-7~--7~------------------------| 
A|------------------------------------------------| 
E|------------------------------------------------| 


e|-----------------------------------| 
B|-----------------------------------| 
G|-----------------------------------| 
D|--7~--7~--7~----9~-----------------| 
A|-----------------------------------| 
E|-----------------------------------| 


e|---------------10--8-------------------| 
B|---------------------10--10------------|                 
G|--7~--7~--7~-----------10-----10--7~---|  
D|---------------------------------------| 
A|---------------------------------------| 
E|---------------------------------------| 

                                         
Pre-Chorus (2:24) 


e|-----------------------------------| 
B|-----------------------------------| 
G|-----------------------------------| 
D|--7--7--7--------------------------| 
A|-----------------------------------| 
E|-----------------------------------| 



last Chorus 

e|---------------------------------------| 
B|---------------------------------------|                first time 
G|---------------------------------------| 
D|--7~--7~--7~----9~---------------------| 
A|---------------------------------------| 
E|---------------------------------------| 

           
e|---------------10--8-------------------| 
B|---------------------10--10------------|                second time 
G|--7~--7~--7~-----------10-----10--7~---|  
D|---------------------------------------| 
A|---------------------------------------| 
E|---------------------------------------| 



outro (2:51) 


e|-----------------------------------| 
B|-----------------------------------| 
G|-----------------------------------| 
D|--7~--7~--7~----9~-----------------| 
A|-----------------------------------| 
E|-----------------------------------| 



end on 

e|-----------------------------------| 
B|-----------------------------------| 
G|-----------------------------------| 
D|--7~~------------------------------| 
A|-----------------------------------| 
E|-----------------------------------| 
		  

auto scroll beats size up size down change color hide chords drawings
tab show chords e-chords YouTube Clip e-chords hide all tabs e-chords go to top tab

share