E-dubble

Taking My Time

E-dubble

tabs

by  JESSGOMES

save to print version add songbook text version e-mail correct tuner
chordsukulelecavacokeyboardtabbassdrumsharmonicaflute Guitar Pro
close

there isn't a video lesson for this song

chords

Taking My Time

	  		



Intro: 
        D       F       D       F           D      

e|----2---2-----1-----2---2-----1-----2--2---2--2---2--2-----------------------| 
B|----3---3-----1-----3---3-----1-----3--3---3--3---3--3-----------------------| 
G|----2---2-----2-----2---2-----2-----2--2---2--2---2--2-----------------------| 
D|----0---0-----3-----0---0-----3-----0--0---0--0---0--0-----------------------| 
A|-----------------------------------------------------------------------------| 
E|-----------------------------------------------------------------------------| 






Verse: 
        D         C         G  

e|-----2--2------0--0------3--3--x--3----------------------------------------| 
B|-----3--3------1--1------0--0--x--0----------------------------------------| 
G|-----2--2------0--0------0--0--x--0----------------------------------------| 
D|-----0--0------2--2------0--0--x--0----------------------------------------| 
A|---------------3--3------2--2--x--2----------------------------------------| 
E|-------------------------3--3--x--3----------------------------------------| 




Between the verses: 


         B5      C5       B5       C5 
e|-----------------------------------------------------------------------------| 
B|-----------------------------------------------------------------------------| 
G|-----4--4-----5--5-----4--4-----5--5-----------------------------------------| 
D|-----4--4-----5--5-----4--4-----5--5-----------------------------------------| 
A|-----2--2-----3--3-----2--2-----3--3-----------------------------------------| 
E|-----------------------------------------------------------------------------| 


I hope you'll like it :D If find any mistakes: [email protected] 
		  

Full key step upFull key step up
Half key step upHalf key step up
Half key step downHalf key step down
Full key step downFull key step down
hide glossary

See also:

tabs Ira! - Envelheço na Cidade tabs Deep Purple - Smoke On Water tabs Ira! - Inundação de Amor tabs Deep Purple - Stormbringer tabs Deep Purple - Money Talks tabs Ira! - A vida por um fio
e-chords

Other versions:

tabs E-dubble - Taking My Time
auto scroll beats size up size down change color hide chords drawings
tab show chords e-chords YouTube Clip e-chords hide all tabs e-chords go to top tab

share