Dsis

The Old Sorrow

Dsis

tabs

by  ANG-LETRA

save to print version add songbook text version e-mail correct tuner
chordsukulelecavacokeyboardtabbassdrumsharmonicaflute Guitar Pro
close

there isn't a video lesson for this song

chords

The Old Sorrow

	  		Intro part 1: 
D|------------------------------| 
A|------------------------------| 
F|------------------------------| 
C|0-----------------------------| (Let it slowly build up) 
G|0--------(Let it ring)--------| 
C|0-----------------------------| 

Intro part 2: 
D|----------------------| 
A|----------------------| 
F|----------------------| 
C|1-3-3--1-3--1-3-3-6-3-| X8 
G|1-3-3--1-3--1-3-3-6-3-| 
C|1-3-3--1-3--1-3-3-6-3-| 
                 
Verse riff 1: (Play this twice) 
D|----------------------|    D|----------------------| 
A|----------------------|    A|----------------------| 
F|----------------------|    F|----------------------| 
C|----------------------| X3 C|----------------------| 
G|----------------------|    G|--------------------5b| 
C|0-0--0-0-0-0--0-0-----|    C|0-0--0-0-0-0--0-0-----| 
PM. .  . . . .  . .          PM. .  . . . .  . . 

Interlude: 
D|----------------------| 
A|----------------------| 
F|----------------------| 
C|1-3-3--1-3--1-3-3-6-3-| X8 
G|1-3-3--1-3--1-3-3-6-3-| 
C|1-3-3--1-3--1-3-3-6-3-| 

Verse riff 2: (Play this once) 
D|----------------------|    D|----------------------| 
A|----------------------|    A|----------------------| 
F|----------------------|    F|----------------------| 
C|----------------------| X3 C|----------------------| 
G|----------------------|    G|--------------------5b| 
C|0-0--0-0-0-0--0-0-----|    C|0-0--0-0-0-0--0-0-----| 
PM. .  . . . .  . .          PM. .  . . . .  . . 

Then play this: 
D|----------------------|    D|---------------------------------| 
A|----------------------|    A|---------------------------------| 
F|----------------------|    F|---------------------------------| 
C|----------------------| X3 C|----------------0----------------| 
G|----------------------|    G|----------------0-(Let it ring)--| 
C|0-0--0-0-0-0--0-0-----|    C|0-0--0-0-0-0--0-0----------------| 
PM. .  . . . .  . .          PM. .  . . . .  . 

Pre-Chorus 
D|----------------------| 
A|----------------------| 
F|----------------------| 
C|24-------------------0| 
G|24---(Pick scrape)---0| (last 2 beats) 
C|24-------------------0| 

Chorus: 
D|----------------------| 
A|----------------------| 
F|----------------------| 
C|1-3-3--1-3--1-3-3-6-3-| X7 
G|1-3-3--1-3--1-3-3-6-3-| 
C|1-3-3--1-3--1-3-3-6-3-| 

Then play this: 
D|-------------------| 
A|-------------------| 
F|-------------------| 
C|1-3-3--1-3--1-3-3-6| 
G|1-3-3--1-3--1-3-3-6| 
C|1-3-3--1-3--1-3-3-6| 

Pre-bridge riff: 
D|-------------------------------------------| 
A|-------------------------------------------| 
F|-------------------------------------------| 
C|----------------------1-3-3--1-3--1-3-3-6-6| 
G|----------------------1-3-3--1-3--1-3-3-6-6| 
C|1-3-3--1-3--1-3-3-6-3-1-3-3--1-3--1-3-3-6-6| 

Bridge part 1: 
D|----------------------| 
A|----------------------| 
F|----------------------| 
C|1-3-3--1-3--1-3-3-6-3-| X8 
G|1-3-3--1-3--1-3-3-6-3-| 
C|1-3-3--1-3--1-3-3-6-3-| 

Bridge part 2 riff 1: 
D|---------------------------| 
A|---------------------------| 
F|---------------------------| 
C|------------------------1--| X2 
G|------------------------1--| 
C|0-0---0-0----0000-0-0---1--| 
PM. .   . .    .... . .    

Bridge part 2 riff 2: 
D|-------------------| 
A|-------------------| 
F|-------------------| 
C|-------------------| X4 
G|-------------------| 
C|0-0--0-0-0-0--0-0--| 
PM. .  . . . .  . . 

Final Chorus riff (Rhythm guitar X16): 
D|----------------------| 
A|----------------------| 
F|----------------------| 
C|1-3-3--1-3--1-3-3-6-3-| X16 
G|1-3-3--1-3--1-3-3-6-3-| 
C|1-3-3--1-3--1-3-3-6-3-| 

Solo part 1: (Play with wha-wha) 
D|--------------------------------------------------| 
A|--------------------------------------------------| 
F|--------------------------------------------------| 
C|h12p0h12p0h12p0h12p0h12p0h12p0h12p0h12p0h12p0h12p0| 
G|--------------------------------------------------| 
C|--------------------------------------------------| 

Solo part 2: (Play with wha-wha): 
D|------------------------------------------------| 
A|---------------------15-------------------------| 
F|15-12-15-12-15-12-15----15-12-15-12-15-12-15----| 
C|---------------------------------------------12-| X3 
G|------------------------------------------------| 
C|------------------------------------------------| 

Solo part 3: (Play with wha-wha) 
D|--------------------------------| 
A|--------------------------------| 
F|--------------------------------| 
C|12~~~~~12~~~~~12~~~~~12~~~~~12\0| 
G|--------------------------------| 
C|--------------------------------| 

Outro: 
D|------------------| 
A|------------------| 
F|------------------| 
C|0-----------------| 
G|0--(Let it ring)--| 
C|0-----------------| 
		  

See also:

tabs Ira! - Poço de Sensibilidade (Solo - Acustico Mtv) tabs Deep Purple - Smoke On The Water tabs Deep Purple - Smoke on the water (intro) tabs Ira! - Eu Quero Sempre Mais (Com Pitty, intro) tabs Deep Purple - Smoke on the Water (ver. 2) tabs Deep Purple - Knocking At Your Back Door
e-chords

Other versions:

tabs Dsis - The Old Sorrow
auto scroll beats size up size down change color hide chords drawings
tab show chords e-chords YouTube Clip e-chords hide all tabs e-chords go to top tab

share