Dropkick Murphys

home > Dropkick Murphys

21 Guitar Salute Tab

Dropkick Murphys

Difficulty: ExpertExpert

by VsWorld

tuner correct add songbook print version text version save to e-mail
chordsukulelecavacokeyboardtabbassdrumsharmonicsflute Guitar Pro
chords

21 Guitar Salute

  		(intro) 

e|-------------------------------------------------------------------------| 
b|-------------------------------------------------------------------------| 
g|-------------------------------------------------------------------------| 
d|----------8--------------------------------------------------------------| 
a|--6-------6------8-------------------------------------------------------| 
e|--4--------------6-------------------------------------------------------| 

(verse) 
e|-------------------------------------------------------------------------| 
b|-------------------------------------------------------------------------| 
g|-------------------------------------------------------------------------| 
d|-----------------------------------------------------8-8-8-10-8-8-8-10-8-| 
a|-8-8-10-8-8-8-10-8-8-8-10-8-8-8-10-8-6-6-8-6-6-6-8-6-6-6-6-6--6-6-6-6--6-| 
e|-6-6-6--6-6-6-6--6-6-6-6--6-6-6-6--6-4-4-4-4-4-4-4-4---------------------| 

e|-------------------------------------------------------------------------| 
b|-------------------------------------------------------------------------| 
g|-------------------------------------------------------------------------| 
d|-----------------------------------------------------8-8-8---------------| 
a|-8-8-10-8-8-8-10-8-8-8-10-8-8-8-10-8-6-6-8-6-6-6-8-6-6-6-6-6-7-----------| 
e|-6-6-6--6-6-6-6--6-6-6-6--6-6-6-6--6-4-4-4-4-4-4-4-4-------4-5-----------| 

e|-------------------------------------------------------------------------| 
b|-------------------------------------------------------------------------| 
g|-------------------------------------------------------------------------| 
d|-----------------------------------------------------8-8-8-10-8-8-8-10-8-| 
a|-8-8-10-8-8-8-10-8-8-8-10-8-8-8-10-8-6-6-8-6-6-6-8-6-6-6-6-6--6-6-6-6--6-| 
e|-6-6-6--6-6-6-6--6-6-6-6--6-6-6-6--6-4-4-4-4-4-4-4-4---------------------| 

e|-------------------------------------------------------------------------| 
b|-------------------------------------------------------------------------| 
g|-------------------------------------------------------------------------| 
d|-----------------------------------------------------8-8-8-10-8-8-8-10-8-| 
a|-8-8-10-8-8-8-10-8-8-8-10-8-8-8-10-8-6-6-8-6-6-6-8-6-6-6-6-6--6-6-6-6--6-| 
e|-6-6-6--6-6-6-6--6-6-6-6--6-6-6-6--6-4-4-4-4-4-4-4-4---------------------| 

(Refrão) 
e|-----------------------------------------------------------------------| 
b|-----------------------------------------------------------------------| 
g|-----------------------------------------------------------------------| 
D|-----------8-----------------------------------------------------------| x2 
a|-6---------6---------8-8-10-8-8-8-10-8-8-8-10-8-8-8-10-8---------------| 
e|-4-------------------6-6-6--6-6-6-6--6-6-6-6--6-6-6-6--6---------------| 

e|-------------------------------------------------------------------------| 
b|-------------------------------------------------------------------------| 
g|-------------------------------------------------------------------------| 
d|----------8--------------------------------------------------------------| 
a|--6-------6------8-------------------------------------------------------| 
e|--4--------------6-------------------------------------------------------| 
	  

Search Paypal
auto scroll beats size up size down change color hide chords drawings
tab show chords e-chords YouTube Clip e-chords hide all tabs e-chords go to top tab