Dreamers

Die Happy Tab

Dreamers

Difficulty: nolevelnolevel

by IronPower4Ever

tuner correct add songbook print version text version save to e-mail
chordsukulelecavacokeyboardtabbassdrumsharmonicsflute Guitar Pro
close

there isn't a video lesson for this song

request
chords

Die Happy

  		Intro 

e|---------------------------------------------------------------| 
B|----13----------------12-----------10----------------17--------| 
G|--------14----------------12-----------10----------------17----| 
D|-----------14------12--------12-----------10------17--------17-| x3 
A|-12------------10----------------8------------15---------------| 
E|---------------------------------------------------------------| 


Verse 

Guitar Left:  

e|-----------------------------------------------12--------| 
B|-----13------------13------------13----------------13-13-| 
G|---------14-14---------14-14---------14-14--12-----------| 
D|--14------------14------------14-------------------------| x4 
A|---------------------------------------------------------| 
E|---------------------------------------------------------| 

Guitar Right: 

e|---------------------------------------------------------------| 
B|----13----------------12-----------10----------------17--------| 
G|--------14----------------12-----------10----------------17----| 
D|-----------14------12--------12-----------10------17--------17-| x4 
A|-12------------10----------------8------------15---------------| 
E|---------------------------------------------------------------| 


Pre-Chorus 1 

Guitar Left: 

e|-----------------------------------------------12--------| 
B|-----13------------12------------13----------------13-13-| 
G|---------14-14---------12-12---------14-14--12-----------| 
D|--14------------12------------14-------------------------| 
A|---------------------------------------------------------| 
E|---------------------------------------------------------| 

e|-----------------------------| 
B|-----13------------12--------| 
G|---------14-14---------12-12-| 
D|--14------------12-----------| 
A|-----------------------------| 
E|-----------------------------| 

Guitar Right: 

e|---------------------------------------------------------------| 
B|----13----------------12-----------10----------------17--------| 
G|--------14----------------12-----------10----------------17----| 
D|-----------14------12--------12-----------10------17--------17-| 
A|-12------------10----------------8------------15---------------| 
E|---------------------------------------------------------------| 

e|--------------------------------| 
B|----13----------------12--------| 
G|--------14----------------12----| 
D|-----------14------12--------12-| 
A|-12------------10---------------| 
E|--------------------------------| 


Chorus 

e|---------------------------------------------------------------| 
B|----13----------------12-----------10----------------17--------| 
G|--------14----------------12-----------10----------------17----| 
D|-----------14------12--------12-----------10------17--------17-| x4 
A|-12------------10----------------8------------15---------------| 
E|---------------------------------------------------------------| 


Verse 

Guitar Left:  

e|-----------------------------------------------12--------| 
B|-----13------------13------------13----------------13-13-| 
G|---------14-14---------14-14---------14-14--12-----------| 
D|--14------------14------------14-------------------------| x4 
A|---------------------------------------------------------| 
E|---------------------------------------------------------| 

Guitar Right: 

e|---------------------------------------------------------------| 
B|----13----------------12-----------10----------------17--------| 
G|--------14----------------12-----------10----------------17----| 
D|-----------14------12--------12-----------10------17--------17-| x4 
A|-12------------10----------------8------------15---------------| 
E|---------------------------------------------------------------| 


Pre-Chorus 2 

e|------------------------------------| 
B|-----10-----10-10------10-10--10-10-| 
G|-----10-----10-10------10-10--10-10-| 
D|-----10-----10-10------10-10--10-10-| x3 
A|-8---8---8--8--8---8---8--8---8--8--| 
E|------------------------------------| 


Chorus 

e|---------------------------------------------------------------| 
B|----13----------------12-----------10----------------17--------| 
G|--------14----------------12-----------10----------------17----| 
D|-----------14------12--------12-----------10------17--------17-| x4 
A|-12------------10----------------8------------15---------------| 
E|---------------------------------------------------------------| 


Bridge 

e|-----------------------------------------------------------| 
B|----13----------------17---------13-----------------17-----| 
G|--------14----------------17---------14-----------------17-| 
D|-----------14------17-------------------14-------17--------| 
A|-12------------15-------------12-------------15------------| 
E|-----------------------------------------------------------| 

e|-----------------------------------------------------------| 
B|----13----------------13---------13-----------------13-----| 
G|--------14----------------14---------14-----------------14-| 
D|-----------14------14-------------------14-------14--------| 
A|-12------------12-------------12-------------12------------| 
E|-----------------------------------------------------------| 

e|----------------------------------------------------------------| 
B|-10---10--10--10-12--12--12-12--12--17---17-17--17--13---13--13-| 
G|-10---10--10--10-12--12--12-12--12--17---17-17--17--14---14--14-| 
D|-10---10--10--10-12--12--12-12--12--17---17-17--17--14---14--14-| 
A|-8----8---8---8--10--10--10-10--10--15---15-15--15--12---12--12-| 
E|----------------------------------------------------------------| 


Solo 

e|------------------------------------------------------------------------------------| 
B|------13-15-15-15b-13-13----13--17b-17---------13-15br-13----13-13-13---------------| 
G|-14----------------------14--------------14-14------------14-14-14-14-14p12--14--12-| 
D|------------------------------------------------------------------------------------| 
A|------------------------------------------------------------------------------------| 
E|------------------------------------------------------------------------------------| 

e|----------------------------------------------------------------------------| 
B|------13-15-15-15b-13-13----13--17b-17---------13-15br-13----13-13-13-------| 
G|-14----------------------14--------------14-14------------14-14-14-14-14p12-| 
D|----------------------------------------------------------------------------| 
A|----------------------------------------------------------------------------| 
E|----------------------------------------------------------------------------| 


Chorus 

e|---------------------------------------------------------------| 
B|----13----------------12-----------10----------------17--------| 
G|--------14----------------12-----------10----------------17----| 
D|-----------14------12--------12-----------10------17--------17-| x4 
A|-12------------10----------------8------------15---------------| 
E|---------------------------------------------------------------| 


Outro 

e|-----------------------------------------------------------| 
B|----13----------------17---------13-----------------17-----| 
G|--------14----------------17---------14-----------------17-| 
D|-----------14------17-------------------14-------17--------| 
A|-12------------15-------------12-------------15------------| 
E|-----------------------------------------------------------| 

e|-----------------------------------------------------------| 
B|----13----------------13---------13-----------------13-----| 
G|--------14----------------14---------14-----------------14-| 
D|-----------14------14-------------------14-------14--------| 
A|-12------------12-------------12-------------12------------| 
E|-----------------------------------------------------------| 

e|---------------------------------------------------------------| 
B|----13----------------12-----------10----------------17--------| 
G|--------14----------------12-----------10----------------17----| 
D|-----------14------12--------12-----------10------17--------17-| 
A|-12------------10----------------8------------15---------------| 
E|---------------------------------------------------------------| 

e|--------------------------------------------------------------| 
B|----13----------------12-----------10---------------10--------| 
G|--------14----------------12-----------10---------------10----| 
D|-----------14------12--------12-----------10-----10--------10-| 
A|-12------------10----------------8------------8---------------| 
E|--------------------------------------------------------------| 


************************************ 

| p   Pull-off 
| b   Bend 
| br  Bend release 

************************************ 
	  

Search Paypal
auto scroll beats size up size down change color hide chords drawings
tab show chords e-chords YouTube Clip e-chords hide all tabs e-chords go to top tab

share with facebook