Dream Theater

home > Dream Theater

Constant Motion Tab

Dream Theater

Difficulty: ExpertExpert

by crisaraujo

tuner correct add songbook print version text version save to e-mail
chordsukulelecavacokeyboardtabbassdrumsharmonicsflute Guitar Pro
chords

Constant Motion

  		E|----------------------------------------------------------| 
B|----------------------------------------------------------| 
G|----------------------------------------------------------| 
D|----------------------------------------------------------| 
A|-/7---0-7-5-7-5---8-5-----0-7-5-7-5---8/10-7--------------| 
E|----0-----------6-----6-0-----------6--------8-6----------| 

E|----------------------------------------------------------| 
B|----------------------------------------------------------| 
G|----------------------------------------------------------| 
D|----------------------------------------------------------| 
A|------0-7-5-7-5---8-5-----0-7-5-7-5---8/10-7-------3-2----| 
E|----0-----------6-----6-0-----------6--------8-6-------1-0| 

E|----------------------------------------------------------| 
B|----------------------------------------------------------| 
G|----------------------------------------------------------| 
D|----------------------------------------------------------| 
A|------0-7-5-7-5---8-5-----0-7-5-7-5---8/10-7--------------| 
E|----0-----------6-----6-0-----------6--------8-6----------| 

E|----------------------------------------------------------| 
B|----------------------------------------------------------| 
G|----------------------------------------------------------| 
D|----------------------------------------------------------| 
A|------0-7-5-7-5---8-5-----0-7-5-7-5---8/10-7-------3-2----| 
E|----0-----------6-----6-0-----------6--------8-6-------1-0| 

E|----------------------------------------------------------| 
B|----------------------------------------------------------| 
G|----------------------------------------------------------| 
D|----------------------------------------------------------| 
A|------0-7-5-7-5---8-5-----0-7-5-7-5---8/10-7--------------| 
E|----0-----------6-----6-0-----------6--------8-6----------| 

E|--------------------------------------------------------------| 
B|--------------------------------------------------------------| 
G|--------------------------------------------------------------| 
D|--------------------------------------------------------------| 
A|------0-7-5-7-5---8-5-----0-7-5-7-5---8/10-7-------3-5-2------| 
E|----0-----------6-----6-0-----------6--------8-6---------3-1-0| 


E|----------------------------------------------------------| 
B|----------------------------------------------------------| 
G|----------------------------------------------------------| 
D|----------------------------------------------------------| 
A|-0-2-0-2-0---3-2-----0-2-0-2-0---3-5-2--------------------| 
E|-----------1-----1-0-----------1-------3-1-0--------------| 

E|----------------------------------------------------------| 
B|----------------------------------------------------------| 
G|----------------------------------------------------------| 
D|----------------------------------------------------------| 
A|-0-2-0-2-0---3-2-----0-2-0-2-0---3-5-2-------3-2----------| 
E|-----------1-----1-0-----------1-------3-1-0-----1-0------| 

E|----------------------------------------------------------| 
B|----------------------------------------------------------| 
G|----------------------------------------------------------| 
D|----------------------------------------------------------| 
A|-0-2-0-2-0---3-2-----0-2-0-2-0---3-5-2--------------------| 
E|-----------1-----1-0-----------1-------3-1-0--------------| 

E|----------------------------------------------------------| 
B|----------------------------------------------------------| 
G|----------------------------------------------------------| 
D|----------------------------------------------------------| 
A|-0-2-0-2-0---3-2-----0-2-0-2-0---3-5-2-----2--------------| 
E|-----------1-----1-0-----------1-------3-1---3-2-1--------| 


E|-------------------------------------------------------------| 
B|-------------------------------------------------------------| 
G|-------------------------------------------------------------| 
D|-3-2-3-2--3-2-------3-2-0-3-----3-2-3-2--3-2-----------------| 
A|-3-2-3-2--3-2-------3-2-0-3-----3-2-3-2--3-2-----3-5-2-------| 
E|--------------0-0-0---------0-0--------------0-0-------3-1-0-| 

E|-------------------------------------------------------------------| 
B|-------------------------------------------------------------------| 
G|-------------------------------------------------------------------| 
D|-3-2-3-2--3-2-------3-2-0-3-----3-2-3-2--3-2-----------------------| 
A|-3-2-3-2--3-2-------3-2-0-3-----3-2-3-2--3-2-----3-5-2-----2-------| 
E|--------------0-0-0---------0-0--------------0-0-------3-1---3-2-1-| 

E|-------------------------------------------------------------| 
B|-------------------------------------------------------------| 
G|-------------------------------------------------------------| 
D|-3-2-3-2--3-2-------3-2-0-3-----3-2-3-2--3-2-----------------| 
A|-3-2-3-2--3-2-------3-2-0-3-----3-2-3-2--3-2-----3-5-2-------| 
E|--------------0-0-0---------0-0--------------0-0-------3-1-0-| 

E|-------------------------------------------------------------------| 
B|-------------------------------------------------------------------| 
G|-------------------------------------------------------------------| 
D|-3-2-3-2--3-2-------3-2-0-3-----3-2-3-2--3-2-----------------------| 
A|-3-2-3-2--3-2-------3-2-0-3-----3-2-3-2--3-2-----3-5-2-----2-------| 
E|--------------0-0-0---------0-0--------------0-0-------3-1---3-2-1-| 

E|-------------------------------------------------------------| 
B|-------------------------------------------------------------| 
G|-------------------------------------------------------------| 
D|-3-2-3-2--3-2-------3-2-0-3-----3-2-3-2--3-2-----------------| 
A|-3-2-3-2--3-2-------3-2-0-3-----3-2-3-2--3-2-----3-5-2-------| 
E|--------------0-0-0---------0-0--------------0-0-------3-1-0-| 

E|-------------------------------------------------------------------| 
B|-------------------------------------------------------------------| 
G|-------------------------------------------------------------------| 
D|-3-2-3-2--3-2-------3-2-0-3-----3-2-3-2--3-2-----------------------| 
A|-3-2-3-2--3-2-------3-2-0-3-----3-2-3-2--3-2-----3-5-2-----2-------| 
E|--------------0-0-0---------0-0--------------0-0-------3-1---3-2-1-| 

E|-------------------------------------------------------------| 
B|-------------------------------------------------------------| 
G|-------------------------------------------------------------| 
D|-3-2-3-2--3-2-------3-2-0-3-----3-2-3-2--3-2-----------------| 
A|-3-2-3-2--3-2-------3-2-0-3-----3-2-3-2--3-2-----3-5-2-------| 
E|--------------0-0-0---------0-0--------------0-0-------3-1-0-| 

E|-------------------------------------------------------------------| 
B|-------------------------------------------------------------------| 
G|-------------------------------------------------------------------| 
D|-3-2-3-2--3-2-------3-2-0-3-----3-2-3-2--3-2-----------------------| 
A|-3-2-3-2--3-2-------3-2-0-3-----3-2-3-2--3-2-----3-5-2-----2-------| 
E|--------------0-0-0---------0-0--------------0-0-------3-1---3-2-1-| 

E|----------------------------------------------------------| 
B|----------------------------------------------------------| 
G|----------------------------------------------------------| 
D|----------------------------------------------------------| 
A|-2-0-2-0-2-3-2---------2-0-2-0-2-3-2----------------------| 
E|---------------3-2-0-2---------------5-3-2-0--------------| 

E|----------------------------------------------------------| 
B|----------------------------------------------------------| 
G|----------------------------------------------------------| 
D|-------------------------------5-3-2----------------------| 
A|-2-0-2-0-2-3-2---------2-0-2-3-------5-3-2--1-2-1---------| 
E|---------------3-2-0-2------------------------------------| 

E|----------------------------------------------------------| 
B|----------------------------------------------------------| 
G|----------------------------------------------------------| 
D|-3-2-3-2--3-2-------3-2-0-3-----3-2-3-2--3-2---3-5-2------| 
A|-----------------------------------------------------3-1--| 
E|--------------0-0-0---------0-0--------------0------------| 

E|-----------------------------------------------------------------| 
B|-----------------------------------------------------------------| 
G|-----------------------------------------------------------------| 
D|-3-2-3-2--3-2-------3-2-0-3-----3-2-3-2--3-2---3-5-2-----2-------| 
A|-----------------------------------------------------3-1---3-2-1-| 
E|--------------0-0-0---------0-0--------------0-------------------| 

E|------------------------------------------------------------| 
B|------------------------------------------------------------| 
G|------------------------------------------------------------| 
D|------------------------------------------------------------| 
A|-2-4-4-4-2-2-2-4-4-4-4-5-5-5-7-7-7-7-5-5-5-7-7-7-7----------| 
E|-0-2-2-2-0-0-0-2-2-2-2-3-3-3-5-5-5-5-3-3-3-5-5-5-5----------| 

E|----------------------------------------------------------| 
B|----------------------------------------------------------| 
G|----------------------------------------------------------| 
D|----------------------------------------------------------| 
A|-2-2-2-4-4-4-4-2-2-2-4-4-4-4-5-5-5-7-7-7-7-5-5-5-7-7-7-7--| 
E|-0-0-0-2-2-2-2-0-0-0-2-2-2-2-3-3-3-5-5-5-5-3-3-3-5-5-5-5--| 

E|----------------------------------| 
B|----------------------------------| 
G|----------------------------------| 
D|----------------------------------| 
A|-7-7-7-9-9-9-9-12-12-12-12-7-7-7--| 
E|-5-5-5-7-7-7-7-10-10-10-10-5-5-5--| 

E|-----------------------------------------------------| 
B|-----------------------------------------------------| 
G|-----------------------------------------------------| 
D|-----------------------------------------------------| 
A|-2-4-4-4-2-2-2-4-4-4-4-5-5-5-7-7-7-7-5-5-5-7-7-7-7---| 
E|-0-2-2-2-0-0-0-2-2-2-2-3-3-3-5-5-5-5-3-3-3-5-5-5-5---| 

E|--------------------------------| 
B|--------------------------------| 
G|--------------------------------| 
D|--------------------------------| 
A|-9-9-9-9-9--7-7-7--7-7-7--7-7-7-| 
E|-7-7-7-7-7--5-5-5--5-5-5--5-5-5-| 

E|-------------------------------------------------------------| 
B|-------------------------------------------------------------| 
G|-------------------------------------------------------------| 
D|-3-2-3-2--3-2-------3-2-0-3-----3-2-3-2--3-2-----------------| 
A|-3-2-3-2--3-2-------3-2-0-3-----3-2-3-2--3-2-----3-5-2-------| 
E|--------------0-0-0---------0-0--------------0-0-------3-1-0-| 

E|-------------------------------------------------------------------| 
B|-------------------------------------------------------------------| 
G|-------------------------------------------------------------------| 
D|-3-2-3-2--3-2-------3-2-0-3-----3-2-3-2--3-2-----------------------| 
A|-3-2-3-2--3-2-------3-2-0-3-----3-2-3-2--3-2-----3-5-2-----2-------| 
E|--------------0-0-0---------0-0--------------0-0-------3-1---3-2-1-| 

E|----------------------------------------------------------| 
B|----------------------------------------------------------| 
G|----------------------------------------------------------| 
D|----------------------------------------------------------| 
A|------------------------------------------5-3-2-----------| 
E|-0-0-0-0--0-0-0---0-0-0-0--0-0-0-0--0-0-0------3-1-0------| 

E|----------------------------------------------------------| 
B|----------------------------------------------------------| 
G|----------------------------------------------------------| 
D|----------------------------------------------------------| 
A|------------------------------------------5-3-2p0---2-----| 
E|-0-0-0-0--0-0-0---0-0-0-0--0-0-0-0--0-0-0---------3---1---| 

E|----------------------------------------------------------| 
B|----------------------------------------------------------| 
G|----------------------------------------------------------| 
D|----------------------------------------------------------| 
A|------------------------------------------5-3-2-----------| 
E|-0-0-0-0--0-0-0---0-0-0-0--0-0-0-0--0-0-0------3-1-0------| 

E|----------------------------------------------------------| 
B|----------------------------------------------------------| 
G|----------------------------------------------------------| 
D|----------------------------------------------------------| 
A|------------------------------------------5-3-2p0---2-----| 
E|-0-0-0-0--0-0-0---0-0-0-0--0-0-0-0--0-0-0---------3---1---| 

E|----------------------------------------------------------| 
B|----------------------------------------------------------| 
G|----------------------------------------------------------| 
D|----------------------------------------------------------| 
A|-2-0-2-0-2---2-3-2-------2-0-2-0-2---2-3-2----------------| 
E|-----------2-------5-3-2-----------2-------5-3-2----------| 

E|----------------------------------------------------------| 
B|----------------------------------------------------------| 
G|----------------------------------------------------------| 
D|----------------------------------------------------------| 
A|-2-0-2-0-2---2-3-2-------2-0-2-0-2---2-3-2----------------| 
E|-----------2-------5-3-2-----------2-------5-3-2----------| 

E|---------------------------------------------------| 
B|---------------------------------------------------| 
G|---------------------------------------------------| 
D|------/9-----------------------/9------------------| 
A|-2-2--/7-2-2-2---2-2-2-2--2-2--/7-2-2-2-5-3-2------| 
E|-0-0-----0-0-0---0-0-0-0--0-0-----0-0-0-------3-1--| 

E|----------------------------------------------------------| 
B|----------------------------------------------------------| 
G|----------------------------------------------------------| 
D|------/9-----------------------/9-------------------------| 
A|-2-2--/7-2-2-2---2-2-2-2--2-2--/7-2-2-2-5-3-2p0---2-------| 
E|-0-0-----0-0-0---0-0-0-0--0-0-----0-0-0---------3---1-----| 

E|------------------------------------------------------------| 
B|------------------------------------------------------------| 
G|------------------------------------------------------------| 
D|------------------------------------------------------------| 
A|-2-4-4-4-2-2-2-4-4-4-4-5-5-5-7-7-7-7-5-5-5-7-7-7-7----------| 
E|-0-2-2-2-0-0-0-2-2-2-2-3-3-3-5-5-5-5-3-3-3-5-5-5-5----------| 

E|----------------------------------------------------------| 
B|----------------------------------------------------------| 
G|----------------------------------------------------------| 
D|----------------------------------------------------------| 
A|-2-2-2-4-4-4-4-2-2-2-4-4-4-4-5-5-5-7-7-7-7-5-5-5-7-7-7-7--| 
E|-0-0-0-2-2-2-2-0-0-0-2-2-2-2-3-3-3-5-5-5-5-3-3-3-5-5-5-5--| 

E|----------------------------------| 
B|----------------------------------| 
G|----------------------------------| 
D|----------------------------------| 
A|-7-7-7-9-9-9-9-12-12-12-12-7-7-7--| 
E|-5-5-5-7-7-7-7-10-10-10-10-5-5-5--| 

E|-----------------------------------------------------| 
B|-----------------------------------------------------| 
G|-----------------------------------------------------| 
D|-----------------------------------------------------| 
A|-2-4-4-4-2-2-2-4-4-4-4-5-5-5-7-7-7-7-5-5-5-7-7-7-7---| 
E|-0-2-2-2-0-0-0-2-2-2-2-3-3-3-5-5-5-5-3-3-3-5-5-5-5---| 

E|------------------------------------| 
B|------------------------------------| 
G|------------------------------------| 
D|------------------------------------| 
A|-9-9-9-9-9--7-7-7--7-7-7--7-7-7--4--| 
E|-7-7-7-7-7--5-5-5--5-5-5--5-5-5--2--| 

E|-----------------------------------| 
B|------7-5-7-5---8-5---7-5----------| 
G|----6---------6-----6-----7-6-5----| 
D|--4--------------------------------| 
A|-----------------------------------| 
E|-----------------------------------| 

E|-----------------------------------| 
B|------7-5-7-5---8-5---8-10-7-------| 
G|----6---------6-----6--------8-6---| 
D|--4--------------------------------| 
A|-----------------------------------| 
E|-----------------------------------| 

E|-----------------------------------| 
B|------7-5-7-5---8-5---7-5----------| 
G|----6---------6-----6-----7-6-5----| 
D|--4--------------------------------| 
A|-----------------------------------| 
E|-----------------------------------| 

E|-----------------------------------| 
B|------7-5-7-5---8-5---8-10-7-------| 
G|----6---------6-----6--------8-6---| 
D|--4--------------------------------| 
A|-----------------------------------| 
E|-----------------------------------| 

E|------------------------| 
B|------------------------| 
G|------------------------| 
D|-2-3-5-3-2---23532------| 
A|-------------------532--| 
E|------------------------| 

E|-----------------------------------------------5~~~~| 
B|--------------------------------2-3-4/7--2-4/7------| 
G|------6--4-6-7--7-6-4-------------------------------| 
D|--4h5-----------------7-6-4/2~~---------------------| 
A|----------------------------------------------------| 
E|----------------------------------------------------| 

E|-------------------------------------------------------------| 
B|-------------------------------------------------------------| 
G|-------------------------------------------------------------| 
D|-3-2-3-2--3-2-------3-2-0-3-----3-2-3-2--3-2-----------------| 
A|-3-2-3-2--3-2-------3-2-0-3-----3-2-3-2--3-2-----3-5-2-------| 
E|--------------0-0-0---------0-0--------------0-0-------3-1-0-| 

E|-------------------------------------------------------------------| 
B|-------------------------------------------------------------------| 
G|-------------------------------------------------------------------| 
D|-3-2-3-2--3-2-------3-2-0-3-----3-2-3-2--3-2-----------------------| 
A|-3-2-3-2--3-2-------3-2-0-3-----3-2-3-2--3-2-----3-5-2-----2-------| 
E|--------------0-0-0---------0-0--------------0-0-------3-1---3-2-1-| 

E|----------------------------------------------------------| 
B|----------------------------------------------------------| 
G|----------------------------------------------------------| 
D|-3-2-3-2--3-2-------3-2-0-3-----3-2-3-2--3-2---3-5-2------| 
A|-----------------------------------------------------3-1--| 
E|--------------0-0-0---------0-0--------------0------------| 

E|-----------------------------------------------------------------| 
B|-----------------------------------------------------------------| 
G|-----------------------------------------------------------------| 
D|-3-2-3-2--3-2-------3-2-0-3-----3-2-3-2--3-2---3-5-2-----2-------| 
A|-----------------------------------------------------3-1---3-2-1-| 
E|--------------0-0-0---------0-0--------------0-------------------| 

E|------------------------------------------------------------| 
B|------------------------------------------------------------| 
G|------------------------------------------------------------| 
D|------------------------------------------------------------| 
A|-2-4-4-4-2-2-2-4-4-4-4-5-5-5-7-7-7-7-5-5-5-7-7-7-7----------| 
E|-0-2-2-2-0-0-0-2-2-2-2-3-3-3-5-5-5-5-3-3-3-5-5-5-5----------| 

E|----------------------------------------------------------| 
B|----------------------------------------------------------| 
G|----------------------------------------------------------| 
D|----------------------------------------------------------| 
A|-2-2-2-4-4-4-4-2-2-2-4-4-4-4-5-5-5-7-7-7-7-5-5-5-7-7-7-7--| 
E|-0-0-0-2-2-2-2-0-0-0-2-2-2-2-3-3-3-5-5-5-5-3-3-3-5-5-5-5--| 

E|----------------------------------| 
B|----------------------------------| 
G|----------------------------------| 
D|----------------------------------| 
A|-7-7-7-9-9-9-9-12-12-12-12-7-7-7--| 
E|-5-5-5-7-7-7-7-10-10-10-10-5-5-5--| 

E|-----------------------------------------------------| 
B|-----------------------------------------------------| 
G|-----------------------------------------------------| 
D|-----------------------------------------------------| 
A|-2-4-4-4-2-2-2-4-4-4-4-5-5-5-7-7-7-7-5-5-5-7-7-7-7---| 
E|-0-2-2-2-0-0-0-2-2-2-2-3-3-3-5-5-5-5-3-3-3-5-5-5-5---| 

E|--------------------------------| 
B|--------------------------------| 
G|--------------------------------| 
D|--------------------------------| 
A|-9-9-9-9-9--7-7-7--7-7-7--7-7-7-| 
E|-7-7-7-7-7--5-5-5--5-5-5--5-5-5-| 

E|------------------------------------------------------------| 
B|------------------------------------------------------------| 
G|------------------------------------------------------------| 
D|------------------------------------------------------------| 
A|-2-4-4-4-2-2-2-4-4-4-4-5-5-5-7-7-7-7-5-5-5-7-7-7-7----------| 
E|-0-2-2-2-0-0-0-2-2-2-2-3-3-3-5-5-5-5-3-3-3-5-5-5-5----------| 

E|----------------------------------------------------------| 
B|----------------------------------------------------------| 
G|----------------------------------------------------------| 
D|----------------------------------------------------------| 
A|-2-2-2-4-4-4-4-2-2-2-4-4-4-4-5-5-5-7-7-7-7-5-5-5-7-7-7-7--| 
E|-0-0-0-2-2-2-2-0-0-0-2-2-2-2-3-3-3-5-5-5-5-3-3-3-5-5-5-5--| 

E|----------------------------------| 
B|----------------------------------| 
G|----------------------------------| 
D|----------------------------------| 
A|-7-7-7-9-9-9-9-12-12-12-12-7-7-7--| 
E|-5-5-5-7-7-7-7-10-10-10-10-5-5-5--| 

E|-----------------------------------------------------| 
B|-----------------------------------------------------| 
G|-----------------------------------------------------| 
D|-----------------------------------------------------| 
A|-2-4-4-4-2-2-2-4-4-4-4-5-5-5-7-7-7-7-5-5-5-7-7-7-7---| 
E|-0-2-2-2-0-0-0-2-2-2-2-3-3-3-5-5-5-5-3-3-3-5-5-5-5---| 

E|--------------------------------| 
B|--------------------------------| 
G|--------------------------------| 
D|--------------------------------| 
A|-9-9-9-9-9--7-7-7--7-7-7--7-7-7-| 
E|-7-7-7-7-7--5-5-5--5-5-5--5-5-5-| 

E|----------------------------------------------------------| 
B|----------------------------------------------------------| 
G|----------------------------------------------------------| 
D|----------------------------------------------------------| 
A|------0-7-5-7-5---8-5-----0-7-5-7-5---8/10-7--------------| 
E|----0-----------6-----6-0-----------6--------8-6----------| 

E|----------------------------------------------------------| 
B|----------------------------------------------------------| 
G|----------------------------------------------------------| 
D|----------------------------------------------------------| 
A|------0-7-5-7-5---8-5-----0-7-5-7-5---8/10-7-------3-2----| 
E|----0-----------6-----6-0-----------6--------8-6-------1-0| 

E|----------------------------------------------------------| 
B|----------------------------------------------------------| 
G|----------------------------------------------------------| 
D|----------------------------------------------------------| 
A|------0-7-5-7-5---8-5-----0-7-5-7-5---8/10-7--------------| 
E|----0-----------6-----6-0-----------6--------8-6----------| 

E|----------------------------------------------------------------------| 
B|----------------------------------------------------------------------| 
G|----------------------------------------------------------------------| 
D|----------------------------------------------------------------------| 
A|------0-7-5-7-5---8-5-----0-7-5-7-5---8/10-7------5-3-2------3-2------| 
E|----0-----------6-----6-0-----------6--------8-6--------3-1-0-----1-0-| 
	  

Search Paypal
auto scroll beats size up size down change color hide chords drawings
tab show chords e-chords YouTube Clip e-chords hide all tabs e-chords go to top tab