Drake

Summers Over Interlude

Drake

tabs

by  AMAN_CLAUDINO

save to print version add songbook text version e-mail correct tuner
chordsukulelecavacokeyboardtabbassdrumsharmonicaflute Guitar Pro
close

there isn't a video lesson for this song

chords

Summers Over Interlude

	  		Okay, so this has got to be the most beautiful song OVO has ever put out. At least, in my opinion, it is, 
hands down. Anyways, I loved it so much, I thought I'd tab it. Email me any questions you have, and feel free 
to comment! 
------------------------------------------------------------------------------------------ 
Guitar 1: 

(this starts out with a nice slide from around the 6th fret up the neck and back down on the low E string) 

e|------------------------------------------------| 
B|----7h8-7-5-7-8-8h10-7--------------------10-10-| 
G|--------------------------9v-----------9--------| 
D|------------------------------------------------| 
A|------------------------------------------------| 
E|------------------------------------------------| 

e|------------------------------------------------| 
B|-7---7h8-7-5-7-8-8h10-7-------------------------| 
G|-------------------------9-7h9v-----------------| 
D|------------------------------------------------| 
A|------------------------------------------------| 
E|------------------------------------------------| 

e|-7----------------------------------------------| 
B|-7----------------7-----------------------------| 
G|-7--------------7-------9-----5-----9-----------| 
D|-9--------------------9-----5-----9-------------| 
A|------------------------------------------------|x7 
E|--------------7-----8-----5-----8---------------| 

------------------------------------------------------------------------------------------ 

Guitar 2: 

This guitar part is pretty simple, but it's very cool. I hope this is easier for those rhythm guitarists out 
there, or just people working the groove. I'm going to try to explain it, because there's no use tabbing it 
out-- the parts where these chords are played have no lyrics for me to notate the chords over. Instead, I'll 
notate it over the first guitar part. So, without further ado: 

These are the only two chords that you'll hear as an overlay: 

Csus2 
|-3-| 
|-3-| 
|-5-| 
|---| 
|---| 
|---| 

Bm7no5 
|-5-| 
|-3-| 
|-4-| 
|---| 
|---| 
|---| 

C 
|-3-| 
|-5-| 
|-5-| 
|---| 
|---| 
|---| 

------------------------------------------------------------------------------------------ 
Now, I'll insert where each chord is played: 


e|-7----------------------------------------------| 
B|-7----------------7-----------------------------| 
G|-7--------------7-------9-----5-----9-----------| 
D|-9--------------------9-----5-----9-------------| 
A|------------------------------------------------| 
E|--------------7-----8-----5-----8---------------| 
                      ^           ^ 
                    Csus2       Csus2 


e|-7----------------------------------------------| 
B|-7----------------7-----------------------------| 
G|-7--------------7-------9-----5-----9-----------| 
D|-9--------------------9-----5-----9-------------| 
A|------------------------------------------------| 
E|--------------7-----8-----5-----8---------------| 
                      ^           ^ 
                    Csus2       Bm7no5 


e|-7----------------------------------------------| 
B|-7----------------7-----------------------------| 
G|-7--------------7-------9-----5-----9-----------| 
D|-9--------------------9-----5-----9-------------| 
A|------------------------------------------------| 
E|--------------7-----8-----5-----8---------------| 
                      ^           ^ 
                    Csus2       Csus2 


e|-7----------------------------------------------| 
B|-7----------------7-----------------------------| 
G|-7--------------7-------9-----5-----9-----------| 
D|-9--------------------9-----5-----9-------------| 
A|------------------------------------------------| 
E|--------------7-----8-----5-----8---------------| 
                      ^           ^ 
                    Csus2       Csus2 

e|-7----------------------------------------------| 
B|-7----------------7-----------------------------| 
G|-7--------------7-------9-----5-----9-----------| 
D|-9--------------------9-----5-----9-------------| 
A|------------------------------------------------| 
E|--------------7-----8-----5-----8---------------| 
                      ^           ^ 
                    Csus2       Csus2 

e|-7----------------------------------------------| 
B|-7----------------7-----------------------------| 
G|-7--------------7-------9-----5-----9-----------| 
D|-9--------------------9-----5-----9-------------| 
A|------------------------------------------------| 
E|--------------7-----8-----5-----8---------------| 
                      ^           ^ 
                    Csus2         C 

e|-7----------------------------------------------| 
B|-7----------------7-----------------------------| 
G|-7--------------7-------9-----5-----9-----------| 
D|-9--------------------9-----5-----9-------------| 
A|------------------------------------------------| 
E|--------------7-----8-----5-----8---------------| 
                      ^           ^ 
                    Csus2       Csus2 
		  

Full key step upFull key step up
Half key step upHalf key step up
Half key step downHalf key step down
Full key step downFull key step down
hide glossary

See also:

tabs Tory Lanez - Say It tabs Drake - Fake Love tabs Drake - The Motto tabs Drake - Summers Over Interlude tabs Down With Webster - One In A Million tabs Drake - Doing It Wrong
e-chords

Other versions:

tabs Drake - Summers Over Interlude
auto scroll beats size up size down change color hide chords drawings
tab show chords e-chords YouTube Clip e-chords hide all tabs e-chords go to top tab

share