Dragonforce

Operation Ground And Pound

Dragonforce

tabs Expert expert

by  PAULANTUNES

save to print version add songbook text version e-mail correct tuner
chordsukulelecavacokeyboardtabbassdrumsharmonicaflute Guitar Pro
close

there isn't a video lesson for this song

chords

Operation Ground And Pound

	  		|---------10--8--10------8--10--12--10--8--10--8-----8-----10--------------------| 
|-----10-------------10---------------------------10----10-----------------------| 
|--7-----------------------------------------------------------------------------| 
|--------------------------------------------------------------------------------| 
|--------------------------------------------------------------------------------| 
|--------------------------------------------------------------------------------| 

|---8--10----8--10--12--10--8--10--8-------8---10--8-----------------------------| 
|---------10--------------------------10-------------10-8------------------------| 
|--------------------------------------------------------------------------------| 
|--------------------------------------------------------------------------------| 
|--------------------------------------------------------------------------------| 
|--------------------------------------------------------------------------------| 
                                                         P.H 
|*| 
|*| 
|--10--7----------------------14------1415-----15--------------------------------| 
|-------------------------1515--151415-------------------------------------------| 
|--------------------------------------------------------------------------------| 
|--------------------------------------------------------------------------------| 

|--------------------------------------------------------------------------------| 
|--13h15151515151515151518p1515151515151515151513h1515151515151518p1515151515----| 
|--------------------------------------------------------------------------------| 
|--------------------------------------------------------------------------------| 
|--------------------------------------------------------------------------------| 
|--------------------------------------------------------------------------------| 

|--------------------------------------------------------------------------------| 
|*| 
|---15151415BU17Bd15BU17Bd15---15151415BU17BD15BU17BD15--------------------------| 
|--------------------------------------------------------------------------------| 
|--------------------------------------------------------------------------------| 
|--------------------------------------------------------------------------------| 

|---------------------15-15Bu17BD15---------15-x-17-x----------------------------| 
|--151513------15--18---------------18-18 x-----------x-13-13--------------------| 
|--------12/14-------------------------------------------------------------------| 
|--------------------------------------------------------------------------------| 
|--------------------------------------------------------------------------------| 
|--------------------------------------------------------------------------------| 

|--------------------------------------------------------------------------------| 
|---1313-------------------------------------------------------------------------| 
|-------1414151512121414----1212-----12p9--9-14p10--10-15p12--12-17p14--14-------| 
|-----------------------1515----1414-----10-------12--------14--------15---------| 
|--------------------------------------------------------------------------------| 
|--------------------------------------------------------------------------------| 
                                                   t     t     t     t 
|-----------17h20p17------/20/20/20p17V~----------20p17-20p17-20p17-20p17--------| 
|--/18/18/18--------201820--------------20-18/22V~-------------------------------| 
|--------------------------------------------------------------------------------| 
|--------------------------------------------------------------------------------| 
|--------------------------------------------------------------------------------| 
|--------------------------------------------------------------------------------| 

|---------/17/24V~---------------------------------------------------------------| 
|---/18/20-----------------------------------------------------------------------| 
|--------------------------------------------------------------------------------| 
|--------------------------------------------------------------------------------| 
|--------------------------------------------------------------------------------| 
|--------------------------------------------------------------------------------| 
Verse 
|--------------------------------------------------------------------------------| 
|--------------------------------------------------------------------------------| 
|--------------------------------------------------------------------------------|X2 
|--4------4--4-2------2--2--------------4----2-----------------------------------| 
|--22222222222-00000000000--5-----------2----0-----------------------------------| 
|---------------------------3333333333-------------------------------------------| 

|--------------------------------------------------------------------------------| 
|--------------------------------------------------------------------------------| 
|--------------------------------------------------------------------------------| 
|-------------4------------4----22222--------------------------------------------| 
|--5--5--5--5-2---2-2-2-2--2----00000--------------------------------------------| 
|--3333333333-----0000000--------------------------------------------------------| 
Pre Chorus 
|-----------------|--------------------------------------------------------------| 
|-----------------|--------------------------------------------------------------| 
|-----------------|--------------------------------------------------------------| 
|--7----2----4----|X2-------------22---------------------------------------------| 
|--5----0----2-5--|-----2---------00---------------------------------------------| 
|--------------3--|-----0000000000-----------------------------------------------| 
Chorus 
|--------------------------------------------------------------------------------| 
|--------------------------------------------------------------------------------| 
|--------------------------------------------------------------------------------| 
|----2----6--2---6----------2---------------------4--2--4-2----------------------| 
|-2--0----4--0---444444444440000000000000000000---2--0--2-0----------------------| 
|-0------------------------------------------------------------------------------| 

Verse 
Pre-Chorus 
Chorus 


Solo  
|--1412--------------------------------------------------------7-9---------------| 
|------151412--------------------------------------------7-8-10------------------| 
|------------141211-----------------------------------7-9------------------------| 
|------------------141211-----------------------7-9-11---------------------------| 
|------------------------141210-----------7-9-10---------------------------------| 
|------------------------------1412-7-9-10---------------------------------------| 
            P.H 
|--9p5------5----9p5--------------21p17---------21p17---------17-21p17-----------| 
|-----7-5-7---------7-5-7/10-7/10------19-17-19------19-17-19---------19-17------| 
|--------------------------------------------------------------------------------| 
|--------------------------------------------------------------------------------| 
|--------------------------------------------------------------------------------| 
|--------------------------------------------------------------------------------| 
                                      *| 
|---------------------------------------------------19p17--17-19h22p19-----------| 
|----14/17-14/17-12p10--10-10-12h15p12-15--15--15--------20------------22--------| 
|---------------------12---------------------------------------------------------| 
|--------------------------------------------------------------------------------| 
|--------------------------------------------------------------------------------| 
|--------------------------------------------------------------------------------| 
                   t                            t 
|------------------1410p7-1410p7-1410p7-1410p7-1210p7-1210p7-1210p7-1210p7-------| 
|--18Bu20BD18Bu20----------------------------------------------------------------| 
|--19Bu21BD19Bu21----------------------------------------------------------------| 
|--------------------------------------------------------------------------------| 
|--------------------------------------------------------------------------------| 
|--------------------------------------------------------------------------------| 
    t                       t                       t 
|--129p5-129p5-129p5-129p5-149p5-149p5-149p5-149p5-109p5-109p5-109p5-109p5-------| 
|--------------------------------------------------------------------------------| 
|--------------------------------------------------------------------------------| 
|--------------------------------------------------------------------------------| 
|--------------------------------------------------------------------------------| 
|--------------------------------------------------------------------------------| 


|--14-12---12------------------12/14-17-19-17-14-----14--------------------------| 
|-------15---15-12--------12-15-----------------15-17--17------------------------| 
|-----------------14-11-14-------------------------------------------------------| 
|--------------------------------------------------------------------------------| 
|--------------------------------------------------------------------------------| 
|--------------------------------------------------------------------------------| 


|-14p10----------10-12-12-12-14-17-14--14-14-14----------------------------------| 
|------12------12--------------------17--------17-15-17-15-----------------------| 
|--------11--11-------------------------------------------16-14-16-14-----16-----| 
|--------------------------------------------------------------------16-14-------| 
|----------14--------------------------------------------------------------------| 
|--------------------------------------------------------------------------------| 

   t                               t 
|-1914p10-1914p10-1914p10-1914p10-2117p12-2117p12-2117p12-2117p12-2117p12-21BU26-| 
|--------------------------------------------------------------------------------| 
|--------------------------------------------------------------------------------| 
|--------------------------------------------------------------------------------| 
|--------------------------------------------------------------------------------| 
|--------------------------------------------------------------------------------| 


|-----------------15-14-15-17Bu19-17V~~~~~~~~------------------------------------| 
|-----15----17-------------------------------------------------------------------| 
|-1414--1414--1414---------------------------------------------------------------| 
|--------------------------------------------------------------------------------| 
|--------------------------------------------------------------------------------| 
|--------------------------------------------------------------------------------| 

     t                               t 
|---2217p14-2217p14-2217p14-2217p14-2117p12-2117p12-2117p12-2117p12--------------| 
|--------------------------------------------------------------------------------| 
|--------------------------------------------------------------------------------| 
|--------------------------------------------------------------------------------| 
|--------------------------------------------------------------------------------| 
|--------------------------------------------------------------------------------| 

Octave Pedal                                                               P.H 
|--2926--26-----------2117--------------------------2221-22/21/17-21-17-17----| 
|-------29--2926-24/29-----1917------------------------------------------------| 
|--------------------------------16/18-----------18/23---------------------------| 
|-------------------------------------16-14/16-19--------------------------------| 
|--------------------------------------------------------------------------------| 
|--------------------------------------------------------------------------------| 
                                                    t                                                  
|----------------------------/17-15-14-15-14-15-17-2215h19-2215h19-2215h19-------| 
|-202020192020191717171515-------------------------------------------------------| 
|--------------------------------------------------------------------------------| 
|--------------------------------------------------------------------------------| 
|--------------------------------------------------------------------------------| 
|--------------------------------------------------------------------------------| 

|-17p14--------------------14-15-19-22------14h17------14h17-----14h17-----------| 
|------15----------------15------------------------------------------------------| 
|--------14------------14--------------14-14------14-14-----14-14----------------| 
|----------16--------16----------------------------------------------------------| 
|------------17p12-17------------------------------------------------------------| 
|--------------------------------------------------------------------------------| 

|----------------------------------------------7-10p7--9-12p9--10-14p10--12-15p12| 
|-17p14-19p14-20-14-19p14-17Bu19BD19BU19BD17--8------10------12--------14--------| 
|--------------------------------------------------------------------------------| 
|--------------------------------------------------------------------------------| 
|--------------------------------------------------------------------------------| 
|--------------------------------------------------------------------------------| 

   t                              t  
|-19p17--19p17-19p17-19p17-19p17-21p17-21p17-21p17-21p17-21p17-------------------| 
|--------------------------------------------------------------------------------| 
|--------------------------------------------------------------------------------| 
|--------------------------------------------------------------------------------| 
|--------------------------------------------------------------------------------| 
|--------------------------------------------------------------------------------| 

|-22-21-17-19-21-19-17-17-15-14--------------------------------------------------| 
|------------------------------17-15-17--17Bu19Bd17-15---------------------------| 
|-----------------------------------------------------1212121214p1614141212------| 
|--------------------------------------------------------------------------------| 
|--------------------------------------------------------------------------------| 
|--------------------------------------------------------------------------------| 
    t     t           t           t 
|--12p10-14p10-14p10-15p10-15p10-19p10-------------------------------------------| 
|--------------------------------------------------------------------------------| 
|--------------------------------------------------------------------------------| 
|--------------------------------------------------------------------------------| 
|--------------------------------------------------------------------------------| 
|--------------------------------------------------------------------------------| 


|--------------------------------------------/9/10/12/16V~~~~~~~~~~~~~~~---------| 
|----------------------------------------12--------------------------------------| 
|--------------------------------11-12-14----------------------------------------| 
|-----------------11-12--11-12-14------------------------------------------------| 
|---------10-12-14-----14--------------------------------------------------------| 
|-10-12-14-----------------------------------------------------------------------| 

|---------------------------------------------1617191716----16-------------------| 
|-----------------14--------------------161719----------1917--1917---------------| 
|-13--131416131416--161413--14----181618-----------------------------------------| 
|---14--------------------16--1613-----------------------------------------------| 
|--------------------------------------------------------------------------------| 
|--------------------------------------------------------------------------------| 
                      P.H                                      P.H 
|-----------------------------16-17-17Bu19Bd17-16--191916------------------------| 
|---------------------17-17-19-------------------17------17191719Bu21Bd19--------| 
|-----131613--13161316-----------------------------------------------------------| 
|-1416------16-------------------------------------------------------------------| 
|--------------------------------------------------------------------------------| 
|--------------------------------------------------------------------------------| 

        /28 
       /     
      /        
     /         
|-21/----------21----------------------------------------------------------------| 
|-----------------16h19--------9-14-17p14--14-16p9-12h1412h1412h1412h1412h14-----| 
|----------------------1113--11----------13--------------------------------------| 
|--------------------------13----------------------------------------------------| 
|--------------------------------------------------------------------------------| 
|--------------------------------------------------------------------------------| 
  t                               t                t                 t        
|--------------------------------19p17p14-19p17p14-------------------------------| 
|-17p14-17p14-17p14-17p14-17p14-------------------19p17p14-19p17p14--------------| 
|-------------------------------------------------------------------18p16-18p16--| 
|--------------------------------------------------------------------------------| 
|--------------------------------------------------------------------------------| 
|--------------------------------------------------------------------------------| 
   t 
|------------------------------------------17/21V~~~~~~--------------------------| 
|-------------------------------------14-17--------------------------------------| 
|-----------------------------------14-------------------------------------------| 
|-18p11h14-18p11h14---------11-12-14---------------------------------------------| 
|-----------------------9-12-----------------------------------------------------| 
|-------------------9-10---------------------------------------------------------| 
                                                       P.H 
|--24Bu26Bd24Bu26Bd24-212121-----------------------------------------------------| 
|---------------------------16------------------------------22-22-22-------------| 
|-----------------------------20Bu21Bd20Bu21Bd20-20-18-14V~~---------------------| 
|--------------------------------------------------------------------------------| 
|--------------------------------------------------------------------------------| 
|--------------------------------------------------------------------------------| 

|----------16h19p16--------------------------------------------------------------| 
|--------19--------191715--------------------------------------------------------| 
|------18----------------1814181614161413----------------------------------------| 
|-16h19----------------------------------16141614------16---------------12-14-16-| 
|------------------------------------------------171617--1614V~~12-14-16---------| 
|--------------------------------------------------------------------------------| 
                                                      P.H 
|-------------------------1112141211------1112141211--12-------------------------| 
|-------------------141214----------141214----------12---------------------------| 
|-14161413------1314-------------------------------------------------------------| 
|---------161416-----------------------------------------------------------------| 
|--------------------------------------------------------------------------------| 
|--------------------------------------------------------------------------------| 
Chorus 

The End 
   t                          t 
|-19p14p11-19p14p11-19p14p11-21p14p11-21p14p11-21p14p11--19V~~-19V~~-19V~~-19V~~-| 
|--------------------------------------------------------------------------------| 
|--------------------------------------------------------------------------------| 
|--------------------------------------------------------------------------------| 
|--------------------------------------------------------------------------------| 
|--------------------------------------------------------------------------------| 




       /26 
      /     
     /       
|-19/--------19---14--14--16--19--181918-----------------------------------------| 
|---------------14--14--14--14--14------1914---------------------------11-14-16-| 
|--------------------------------------------1511--------------11-13-14---------| 
|-------------------------------------------------1613-11-11-13-----------------| 
|--------------------------------------------------------------------------------| 
|--------------------------------------------------------------------------------| 

|-14-11-14-16-14h16p14h16-14-13-11------------------------14V~~------------------| 
|---------------------------------14-12-11-----11-14-11-14-----------------------| 
|-----------------------------------------13-11----------------------------------| 
|--------------------------------------------------------------------------------| 
|--------------------------------------------------------------------------------| 
|--------------------------------------------------------------------------------| 

|-14-13-11---------------------------------------/21/18/19/18/19/21/21V~~~~~~~~--| 
|---------14-11------------------------------------------------------------------| 
|--------------13-11-10----------------------------------------------------------| 
|----------------------13-10-9-13-11-9-------------------------------------------| 
|-------------------------------------13-11-9------------------------------------| 
|--------------------------------------------13V~~-------------------------------| 
		  

See also:

tabs Engenheiros do Hawaii - Infinita Highway tabs B5 - Só mais uma vez tabs Rodox - Dia Quente tabs Legião Urbana - Há Tempos tabs Raul Seixas - Tente outra vez tabs Engenheiros do Hawaii - Pra ser sincero ( ver. 2)
e-chords

Other versions:

tabs Dragonforce - Operation Ground And Pound
auto scroll beats size up size down change color hide chords drawings
tab show chords e-chords YouTube Clip e-chords hide all tabs e-chords go to top tab

share