Dragonforce

Cry Thunder

Dragonforce

tabs Expert expert

by  VSWORLD

save to print version add songbook text version e-mail correct tuner
chordsukulelecavacokeyboardtabbassdrumsharmonicaflute Guitar Pro
close

there isn't a video lesson for this song

chords

Cry Thunder

	  		intro part 1 


|---------------------------------------------------------------------------| 
|---------------------------------------------------------------------------| 
|-11~----9--11--12~--12-12-11--9--7--9~---9--11--12--14---12--11--9--7--9~--| 
|---------------------------------------------------------------------------| 
|---------------------------------------------------------------------------| 
|---------------------------------------------------------------------------| 


|---------------------------------------------------------------------------| 
|---------------------------------------------------------------------------| 
|-11~-----9--11--12~--12-12-11--9--7--9~---9--11--12--14---12--11--9--7--14-| 
|---------------------------------------------------------------------------| 
|---------------------------------------------------------------------------| 
|---------------------------------------------------------------------------| 


|------------------------------------------------| 
|------------------------------------------------| 
|-14--14-14-14-14141414~-------------------------| 
|------------------------------------------------| 
|------------------------------------------------| 
|------------------------------------------------| 

intro part 2  

|----------------------------12-14-15-15-14-12----12---------------------| 
|-12-12-12-14-15-12-12-14-15-------------------15----15-14-12-14-15-14-12| 
|------------------------------------------------------------------------| 
|------------------------------------------------------------------------| 
|------------------------------------------------------------------------| 
|------------------------------------------------------------------------| 

|----------------------------------------12-14-15-15-14-12----12-------- | 
|14-15-14-12---12-12-12-14-15-12-12-14-15------------------15----15-14-12| 
|------------------------------------------------------------------------| 
|------------------------------------------------------------------------| 
|------------------------------------------------------------------------| 
|------------------------------------------------------------------------| 

|-----------------------------------12-------------| 
|-14-15-14-12-14-15-14-12--14-12-14----14-12-14-15-| 
|--------------------------------------------------| 
|--------------------------------------------------| 
|--------------------------------------------------| 
|--------------------------------------------------| 

|----------------------------12-14-15-15-14-12----12---------------------| 
|-12-12-12-14-15-12-12-14-15-------------------15----15-14-12-14-15-14-12| 
|------------------------------------------------------------------------| 
|------------------------------------------------------------------------| 
|------------------------------------------------------------------------| 
|------------------------------------------------------------------------| 

|----------------------------------------12-14-15-15-14-12----12-------- | 
|14-15-14-12---12-12-12-14-15-12-12-14-15------------------15----15-14-12| 
|------------------------------------------------------------------------| 
|------------------------------------------------------------------------| 
|------------------------------------------------------------------------| 
|------------------------------------------------------------------------| 

|-----------------------------------12-------------| 
|-14-15-14-12-14-15-14-12--14-12-14----14-12-14-15-| 
|--------------------------------------------------| 
|--------------------------------------------------| 
|--------------------------------------------------| 
|--------------------------------------------------| 

|-13---------13h17p13--------13h17p13---------13---------------------| 
|---15----15---------15----15--------15----15-------12--12-12-12-12~-| 
|------14---------------14--------------14---------------------------| 
|--------------------------------------------------------------------| 
|--------------------------------------------------------------------| 
|--------------------------------------------------------------------| 



verse 

|---------------------------------------------| 
|---------------------------------------------| 
|---------------------------------------------| 
|--4-------- 4---------4---------4---------4--| 
|--2---2-2-2-2---2-2-2-2---2-2-2-2---2-2-2-2--| 
|---------------------------------------------| 

|---------------------------| 
|---------------------------| 
|---------------------------| 
|---------------7-----------| 
|-2-2-2-5-------5-5-5-5-7-7-| 
|-------3-3-3-3---------5-5-| 

|---------------------------------------------| 
|---------------------------------------------| 
|---------------------------------------------| 
|--4-------- 4---------4---------4---------4--| 
|--2---2-2-2-2---2-2-2-2---2-2-2-2---2-2-2-2--| 
|---------------------------------------------| 

|---------------------------| 
|---------------------------| 
|---------------------------| 
|---------------7-----------| 
|-2-2-2-5-------5-5-5-5-7-7-| 
|-------3-3-3-3---------5-5-| 


|----------------------------12-14-15-15-14-12----12---------------------| 
|-12-12-12-14-15-12-12-14-15-------------------15----15-14-12-14-15-14-12| 
|------------------------------------------------------------------------| 
|------------------------------------------------------------------------| 
|------------------------------------------------------------------------| 
|------------------------------------------------------------------------| 

|----------------------------------------12-14-15-15-14-12----12-------- | 
|14-15-14-12---12-12-12-14-15-12-12-14-15------------------15----15-14-12| 
|------------------------------------------------------------------------| 
|------------------------------------------------------------------------| 
|------------------------------------------------------------------------| 
|------------------------------------------------------------------------| 

|-----------------------------------12-------------| 
|-14-15-14-12-14-15-14-12--14-12-14----14-12-14-15-| 
|--------------------------------------------------| 
|--------------------------------------------------| 
|--------------------------------------------------| 
|--------------------------------------------------| 

verse 2 
|---------------------------------------------| 
|---------------------------------------------| 
|---------------------------------------------| 
|--4-------- 4---------4---------4---------4--| 
|--2---2-2-2-2---2-2-2-2---2-2-2-2---2-2-2-2--| 
|---------------------------------------------| 

|---------------------------| 
|---------------------------| 
|---------------------------| 
|---------------7-----------| 
|-2-2-2-5-------5-5-5-5-7-7-| 
|-------3-3-3-3---------5-5-| 


|---------------------------------------------| 
|---------------------------------------------| 
|---------------------------------------------| 
|--4-------- 4---------4---------4---------4--| 
|--2---2-2-2-2---2-2-2-2---2-2-2-2---2-2-2-2--| 
|---------------------------------------------| 

|---------------------------| 
|---------------------------| 
|---------------------------| 
|---------------7-----------| 
|-2-2-2-5-------5-5-5-5-7-7-| 
|-------3-3-3-3---------5-5-| 

pre-chorus 

|---------------------------------------------------------------|7 
|---------------------------------------------------------------| 
|---------------------------------------------------------------| 
|-----------------------------7-------7-------7-------7-------7-| 
|--5-5-5-5-5-5-5-5--5-2-5-7-9-5-5-5-5-5-5-5-5-5-5-5-5-5-5-5-5-5-| 
|--3-3-3-3-3-3-3-3--3-0-3-5-7-----------------------------------| 

|---------------------------------------------| 
|---------------------------------------------| 
|---------------------------------------------| 
|---------------------------------------------| 
|-9-------9-------9-------9--7-7-7------------| 
|-7-7-7-7-7-7-7-7-7-7-7-7-7--5-5-5------------| 

chorus 

|------------------------------| 
|------------------------------| 
|------------------------------| 
|--4-------- 4--4--5-------5-5-| 
|--2---2-2-2-2--2--3-3-3-3-3-3-| 
|------------------------------| 

|-----------------------------| 
|-----------------------------| 
|-----------------------------| 
|-4---------------7-----------| 
|-2-2-2-2-5-------5-5-5-5-7-7-| 
|---------3-3-3-3---------5-5-| 

|------------------------------| 
|------------------------------| 
|------------------------------| 
|--4-------- 4--4--5-------5-5-| 
|--2---2-2-2-2--2--3-3-3-3-3-3-| 
|------------------------------| 

|-----------------------------| 
|-----------------------------| 
|-----------------------------| 
|---------2--2--2-4-----------| 
|-5-------0--0--0-2-----------| 
|-3-3-3-3---------------------| 




|----------------------------12-14-15-15-14-12----12---------------------| 
|-12-12-12-14-15-12-12-14-15-------------------15----15-14-12-14-15-14-12| 
|------------------------------------------------------------------------| 
|------------------------------------------------------------------------| 
|------------------------------------------------------------------------| 
|------------------------------------------------------------------------| 

|----------------------------------------12-14-15-15-14-12----12-------- | 
|14-15-14-12---12-12-12-14-15-12-12-14-15------------------15----15-14-12| 
|------------------------------------------------------------------------| 
|------------------------------------------------------------------------| 
|------------------------------------------------------------------------| 
|------------------------------------------------------------------------| 

|-----------------------------------12-------------| 
|-14-15-14-12-14-15-14-12--14-12-14----14-12-14-15-| 
|--------------------------------------------------| 
|--------------------------------------------------| 
|--------------------------------------------------| 
|--------------------------------------------------| 


verse 3 
|---------------------------------------------| 
|---------------------------------------------| 
|---------------------------------------------| 
|--4-------- 4---------4---------4---------4--| 
|--2---2-2-2-2---2-2-2-2---2-2-2-2---2-2-2-2--| 
|---------------------------------------------| 

|---------------------------| 
|---------------------------| 
|---------------------------| 
|---------------7-----------| 
|-2-2-2-5-------5-5-5-5-7-7-| 
|-------3-3-3-3---------5-5-| 


|---------------------------------------------| 
|---------------------------------------------| 
|---------------------------------------------| 
|--4-------- 4---------4---------4---------4--| 
|--2---2-2-2-2---2-2-2-2---2-2-2-2---2-2-2-2--| 
|---------------------------------------------| 

|---------------------------| 
|---------------------------| 
|---------------------------| 
|---------------7-----------| 
|-2-2-2-5-------5-5-5-5-7-7-| 
|-------3-3-3-3---------5-5-| 

pre-chorus 

|---------------------------------------------------------------| 
|---------------------------------------------------------------| 
|---------------------------------------------------------------| 
|-----------------------------7-------7-------7-------7-------7-| 
|--5-5-5-5-5-5-5-5--5-2-5-7-9-5-5-5-5-5-5-5-5-5-5-5-5-5-5-5-5-5-| 
|--3-3-3-3-3-3-3-3--3-0-3-5-7-----------------------------------| 

|---------------------------------------------| 
|---------------------------------------------| 
|---------------------------------------------| 
|---------------------------------------------| 
|-9-------9-------9-------9--7-7-7------------| 
|-7-7-7-7-7-7-7-7-7-7-7-7-7--5-5-5------------| 

chorus 

|------------------------------| 
|------------------------------| 
|------------------------------| 
|--4-------- 4--4--5-------5-5-| 
|--2---2-2-2-2--2--3-3-3-3-3-3-| 
|------------------------------| 

|-----------------------------| 
|-----------------------------| 
|-----------------------------| 
|-4---------------7-----------| 
|-2-2-2-2-5-------5-5-5-5-7-7-| 
|---------3-3-3-3---------5-5-| 

|------------------------------| 
|------------------------------| 
|------------------------------| 
|--4-------- 4--4--5-------5-5-| 
|--2---2-2-2-2--2--3-3-3-3-3-3-| 
|------------------------------| 

|-----------------------------| 
|-----------------------------| 
|-----------------------------| 
|---------2--2--2-4-----------| 
|-5-------0--0--0-2-----------| 
|-3-3-3-3---------------------| 

pre-solo 

|------------------------------------------------------------------| 
|------------------------------------------------------------------| 
|------------------------------------------------------------------| 
|----2--2--2-4---4-4-4-4-4-4-4-2---4-4-4-4-4-4-4-2---4-4-4---4-4-4-| 
|-5--0--0--0-2---2-2-2-2-2-2-2-0---2-2-2-2-2-2-2-0---2-2-2---2-2-2-| 
|-3----------------------------------------------------------------| 

|---------------------| 
|---------------------| 
|---------------------| 
|-4-4-4-4-4-4-4-2-----| 
|-2-2-2-2-2-2-2-0-----| 
|---------------------| 

Sorry I have no solo 

|---------------------| 
|---------------------| 
|---------------------| 
|-4-4-4-4-4-4-4-2-----|x6 
|-2-2-2-2-2-2-2-0-----| 
|---------------------| 

|------------------------------------------------| 
|------------------------------------------------| 
|------------------------------------------------| 
|-2-------------2---2---2---2---2---2---2--------| 
|-0-0-0-0-0-0-0-0---0---0---0---0---0---0--------| 
|------------------------------------------------| 

chorus  

|------------------------------| 
|------------------------------| 
|------------------------------| 
|--4-------- 4--4--5-------5-5-| 
|--2---2-2-2-2--2--3-3-3-3-3-3-| 
|------------------------------| 

|-----------------------------| 
|-----------------------------| 
|-----------------------------| 
|-4---------------7-----------| 
|-2-2-2-2-5-------5-5-5-5-7-7-| 
|---------3-3-3-3---------5-5-| 

|------------------------------| 
|------------------------------| 
|------------------------------| 
|--4-------- 4--4--5-------5-5-| 
|--2---2-2-2-2--2--3-3-3-3-3-3-| 
|------------------------------| 

|-----------------------------| 
|-----------------------------| 
|-----------------------------| 
|---------2--2--2-4-----------| 
|-5-------0--0--0-2-----------| 
|-3-3-3-3---------------------| 

chorus  

|------------------------------| 
|------------------------------| 
|------------------------------| 
|--4-------- 4--4--5-------5-5-| 
|--2---2-2-2-2--2--3-3-3-3-3-3-| 
|------------------------------| 

|-----------------------------| 
|-----------------------------| 
|-----------------------------| 
|-4---------------7-----------| 
|-2-2-2-2-5-------5-5-5-5-7-7-| 
|---------3-3-3-3---------5-5-| 

|------------------------------| 
|------------------------------| 
|------------------------------| 
|--4-------- 4--4--5-------5-5-| 
|--2---2-2-2-2--2--3-3-3-3-3-3-| 
|------------------------------| 

|-----------------------------| 
|-----------------------------| 
|-----------------------------| 
|---------2--2--2-4-----------| 
|-5-------0--0--0-2-----------| 
|-3-3-3-3---------------------| 

final 

|------------------------------------------------------| 
|------------------------------------------------------| 
|------------------------------------------------------| 
|----2--2~---4-----4-----4-----4-----4-----4---4-----4-| 
|-5--0--0~---2-2-2-2-2-2-2-2-2-2-2-2-2-2-2-2-2-2-2-2-2-| 
|-3----------------------------------------------------| 


|------------------------------| 
|------------------------------| 
|------------------------------| 
|--4--4--2--4~-----------------| 
|--2--2--0--2~-----------------| 
|------------------------------| 

 
		  

See also:

tabs Engenheiros do Hawaii - Infinita Highway tabs B5 - Só mais uma vez tabs Rodox - Dia Quente tabs Legião Urbana - Há Tempos tabs Raul Seixas - Tente outra vez tabs Engenheiros do Hawaii - Pra ser sincero ( ver. 2)
e-chords

Other versions:

tabs Dragonforce - Cry Thunder
auto scroll beats size up size down change color hide chords drawings
tab show chords e-chords YouTube Clip e-chords hide all tabs e-chords go to top tab

share