Down

Witchtripper

Down

tabs

by  JOAOEWERTON

save to print version add songbook text version e-mail correct tuner
chordsukulelecavacokeyboardtabbassdrumsharmonicaflute Guitar Pro
close

there isn't a video lesson for this song

chords

Witchtripper

	  		


Tunning: B F# B E G# C# (Drop B tunning) 

b  - bend 
v  - vibrato 
pb - prebend 
r  - release bend 
/\ - slides (self explanatory) 
h  - hammer on 
p  - pull off 
PM - Palm Mute 
g  - grace note 
ph - pinch harmonic 
tr - trill 
=  - tremelo pick 
.  - Stoccato/Palm Mute 


INTRO (4x) 
|-------------------------------------------------------------------------------| 
|-------------------------------------------------------------------------------| 
|-------------------------------------------------------------------------------| 
|--------------3------------------------------------3s5-3-----------------------| 
|---0-------------5-3-5v---5-3-0-3-5v----0----------------5-5v---5-3-0--0--1-1--| 
|---0--0-0-0-----------------------------0--0-0-0-----------------------0--1-1--| 
   PM......                                . . .                       .  . . 

Pre-Verse Riff 
|-------------------------------------------------------------------------------| 
|-------------------------------------------------------------------------------| 
|-------------------------------------------------------------------------------| 
|-------------------------------------------------------------------------------| 
|---0--8--6--8--6--8--5--6v---0--8--6--8--6--8----------------------------------| 
|---0--8--6--8--6--8--5--6v---0--8--6--8--6--8---0--3--5--6--5--3---------------| 
  PM     .     .             .     .     .      .  .  .  .  .  . 


verse 1 
|-------------------------------------------------------------------------------| 
|-------------------------------------------------------------------------------| 
|-------------------------------------------------------------------------------| 
|-------------------------------------------------------------------------------| 
|---------------8-8-8-8-8-8-------------8p7---7v---------------8p7---5s7s5------| 
|---0-0-0-0-0-0-------------0-0-0-0-0-0-----0------0-0-0-0-0-0-----0------------| 
 PM. . . . . .             . . . . . .     .      . . . . . .     . 

|-------------------------------------------------------------------------------| 
|-------------------------------------------------------------------------------| 
|-------------------------------------------------------------------------------| 
|-------------------------------------------------------------------------------| 
|-------------------------------------------8-8-8-8-8-8-------------8p7---7v----| 
|---0-0-0-0-0-0--3p0-0-3s5v-----0-0-0-0-0-0-------------0-0-0-0-0-0-----0-------| 
 PM. . . . . .      .          . . . . . .             . . . . . .     . 

|-------------------------------------------------------------------------------| 
|-------------------------------------------------------------------------------| 
|-------------------------------------------------------------------------------| 
|-----------------------------------------------------10--9-9--7-7--5-5--8------| 
|---------------8p7---5s7s5---------------------------8---7-7--5-5--3-3--6------| 
|---0-0-0-0-0-0-----0-------0-0-0-0-0-0-3p0-0-3s5v------------------------------| 
 PM. . . . . .     .       . . . . . .     . 

|-------------------------------------------------------------------------------| 
|-------------------------------------------------------------------------------| 
|-------------------------------------------------------------------------------| 
|-------------------------------------------------------------------------------| 
|---------------8-8-8-8-8-8-------------8p7---7v---------------8p7---5s7s5------| 
|---0-0-0-0-0-0-------------0-0-0-0-0-0-----0------0-0-0-0-0-0-----0------------| 
 PM. . . . . .             . . . . . .     .      . . . . . .     . 

|-------------------------------------------------------------------------------| 
|-------------------------------------------------------------------------------| 
|-------------------------------------------------------------------------------| 
|-------------------------------------------------------------------------------| 
|-------------------------------------------8-8-8-8-8-8-------------8p7---7v----| 
|---0-0-0-0-0-0--3p0-0-3s5v-----0-0-0-0-0-0-------------0-0-0-0-0-0-----0-------| 
 PM. . . . . .      .          . . . . . .             . . . . . .     . 

|-------------------------------------------------------------------------------| 
|-------------------------------------------------------------------------------| 
|-------------------------------------------------------------------------------| 
|-------------------------------------------------------------------------------| 
|---------------8p7---5s7s5-----------------------------------------------------| 
|---0-0-0-0-0-0-----0-------0-0-0-0-0-0-3p0-0-3s5v------------------------------| 
 PM. . . . . .     .       . . . . . .     . 

|------------------------------------| 
|------------------------------------| 
|------------------------------------| 
|---10--9-9--7-7--5-5--8-8--7-7vv----| 
|---8---7-7--5-5--3-3--6-6--5-5vv----| 
|------------------------------------| 


Chorus (2x) 
|-------------------------------------------------------------------------------| 
|-------------------------------------------------------------------------------| 
|-------------------------------------------------------------------------------| 
|--------------3------------------------------------3s5-3-----------------------| 
|---0-------------5-3-5v---5-3-0-3-5v----0----------------5-5v---5-3-0--0--1-1--| 
|---0--0-0-0-----------------------------0--0-0-0-----------------------0--1-1--| 
   PM......                                . . .                       .  . . 


Pre-Verse Riff 
|-------------------------------------------------------------------------------| 
|-------------------------------------------------------------------------------| 
|-------------------------------------------------------------------------------| 
|-------------------------------------------------------------------------------| 
|---0--8--6--8--6--8--5--6v---0--8--6--8--6--8----------------------------------| 
|---0--8--6--8--6--8--5--6v---0--8--6--8--6--8---0--3--5--6--5--3---------------| 
  PM     .     .             .     .     .      .  .  .  .  .  . 


verse 2 
|-------------------------------------------------------------------------------| 
|-------------------------------------------------------------------------------| 
|-------------------------------------------------------------------------------| 
|-------------------------------------------------------------------------------| 
|---------------8-8-8-8-8-8-------------8p7---7v---------------8p7---5s7s5------| 
|---0-0-0-0-0-0-------------0-0-0-0-0-0-----0------0-0-0-0-0-0-----0------------| 
 PM. . . . . .             . . . . . .     .      . . . . . .     . 

|-------------------------------------------------------------------------------| 
|-------------------------------------------------------------------------------| 
|-------------------------------------------------------------------------------| 
|-------------------------------------------------------------------------------| 
|-------------------------------------------8-8-8-8-8-8-------------8p7---7v----| 
|---0-0-0-0-0-0--3p0-0-3s5v-----0-0-0-0-0-0-------------0-0-0-0-0-0-----0-------| 
 PM. . . . . .      .          . . . . . .             . . . . . .     . 

|-------------------------------------------------------------------------------| 
|-------------------------------------------------------------------------------| 
|-------------------------------------------------------------------------------| 
|-----------------------------------------------------10--9-9--7-7--5-5--8------| 
|---------------8p7---5s7s5---------------------------8---7-7--5-5--3-3--6------| 
|---0-0-0-0-0-0-----0-------0-0-0-0-0-0-3p0-0-3s5v------------------------------| 
 PM. . . . . .     .       . . . . . .     . 

|-------------------------------------------------------------------------------| 
|-------------------------------------------------------------------------------| 
|-------------------------------------------------------------------------------| 
|-------------------------------------------------------------------------------| 
|---------------8-8-8-8-8-8-------------8p7---7v---------------8p7---5s7s5------| 
|---0-0-0-0-0-0-------------0-0-0-0-0-0-----0------0-0-0-0-0-0-----0------------| 
 PM. . . . . .             . . . . . .     .      . . . . . .     . 

|-------------------------------------------------------------------------------| 
|-------------------------------------------------------------------------------| 
|-------------------------------------------------------------------------------| 
|-------------------------------------------------------------------------------| 
|-------------------------------------------8-8-8-8-8-8-------------8p7---7v----| 
|---0-0-0-0-0-0--3p0-0-3s5v-----0-0-0-0-0-0-------------0-0-0-0-0-0-----0-------| 
 PM. . . . . .      .          . . . . . .             . . . . . .     . 

|-------------------------------------------------------------------------------| 
|-------------------------------------------------------------------------------| 
|-------------------------------------------------------------------------------| 
|-------------------------------------------------------------------------------| 
|---------------8p7---5s7s5-----------------------------------------------------| 
|---0-0-0-0-0-0-----0-------0-0-0-0-0-0-3p0-0-3s5v------------------------------| 
 PM. . . . . .     .       . . . . . .     . 

|------------------------------------| 
|------------------------------------| 
|------------------------------------| 
|---10--9-9--7-7--5-5--8-8--7-7vv----| 
|---8---7-7--5-5--3-3--6-6--5-5vv----| 
|------------------------------------| 


Chorus (2x) 
|-------------------------------------------------------------------------------| 
|-------------------------------------------------------------------------------| 
|-------------------------------------------------------------------------------| 
|--------------3------------------------------------3s5-3-----------------------| 
|---0-------------5-3-5v---5-3-0-3-5v----0----------------5-5v---5-3-0--0--1-1--| 
|---0--0-0-0-----------------------------0--0-0-0-----------------------0--1-1--| 
   PM......                                . . .                       .  . . 


NO SOLO YET - SORRY!!! (Pepper plays some random pentatonic scales, thats it) 


Solo Rhythm (4x) 
|-------------------------------------------------------------------------------| 
|-------------------------------------------------------------------------------| 
|-------------------------------------------------------------------------------| 
|-------------------------------------------------------------------------------| 
|---0--8--6--8--6--8--5--6v---0--8--6--8--6--8----------------------------------| 
|---0--8--6--8--6--8--5--6v---0--8--6--8--6--8---0--3--5--6--5--3---------------| 
  PM     .     .             .     .     .      .  .  .  .  .  . 

POST SOLO RIFF (4x) 
|------------------------------| 
|------------------------------| 
|------------------------------| 
|------------------------------| 
|------------------------------| 
|---0-0-0-0-0-0-0-0-0-0-0-0----| 
 PM. . . . . . . . . . . .  


verse 3 
|-------------------------------------------------------------------------------| 
|-------------------------------------------------------------------------------| 
|-------------------------------------------------------------------------------| 
|-------------------------------------------------------------------------------| 
|---------------8-8-8-8-8-8-------------8p7---7v---------------8p7---5s7s5------| 
|---0-0-0-0-0-0-------------0-0-0-0-0-0-----0------0-0-0-0-0-0-----0------------| 
 PM. . . . . .             . . . . . .     .      . . . . . .     . 

|-------------------------------------------------------------------------------| 
|-------------------------------------------------------------------------------| 
|-------------------------------------------------------------------------------| 
|------------------------------10--9-9--7-7--5-5--8-8--7-7vv--------------------| 
|------------------------------8---7-7--5-5--3-3--6-6--5-5vv--------------------| 
|---0-0-0-0-0-0--3p0-0-3s5v-----------------------------------------------------| 
 PM. . . . . .      . 


verse 4 
|-------------------------------------------------------------------------------| 
|-------------------------------------------------------------------------------| 
|-------------------------------------------------------------------------------| 
|-------------------------------------------------------------------------------| 
|---------------8-8-8-8-8-8-------------8p7---7v---------------8p7---5s7s5------| 
|---0-0-0-0-0-0-------------0-0-0-0-0-0-----0------0-0-0-0-0-0-----0------------| 
 PM. . . . . .             . . . . . .     .      . . . . . .     . 

|-------------------------------------------------------------------------------| 
|-------------------------------------------------------------------------------| 
|-------------------------------------------------------------------------------| 
|------------------------------10--9-9--7-7--5-5--8-8--7-7vv--------------------| 
|------------------------------8---7-7--5-5--3-3--6-6--5-5vv--------------------| 
|---0-0-0-0-0-0--3p0-0-3s5v-----------------------------------------------------| 
 PM. . . . . .      . 


ENDING Chorus (2x) 
|-------------------------------------------------------------------------------| 
|-------------------------------------------------------------------------------| 
|-------------------------------------------------------------------------------| 
|--------------3------------------------------------3s5-3-----------------------| 
|---0-------------5-3-5v---5-3-0-3-5v----0----------------5-5v---5-3-0--0--1-1--| 
|---0--0-0-0-----------------------------0--0-0-0-----------------------0--1-1--| 
   PM......                                . . .                       .  . . 
		  

Full key step upFull key step up
Half key step upHalf key step up
Half key step downHalf key step down
Full key step downFull key step down
auto scroll beats size up size down change color hide chords drawings
tab show chords e-chords YouTube Clip e-chords hide all tabs e-chords go to top tab

share