Down

We Knew Him Well

Down

tabs

by  TERR_SCHMITZ

save to print version add songbook text version e-mail correct tuner
chordsukulelecavacokeyboardtabbassdrumsharmonicaflute Guitar Pro
close

there isn't a video lesson for this song

chords

We Knew Him Well

	  		

Tuning: B F# B E G# C# 

Here's what you're having: 

e|-------------------------------------------------------------------------------| 
B|-------------------------------------------------------------------------------| 
G|-------------------------------------------------------------------------------| 
D|-------------------------------------------------------------------------------| 
A|-------------------------------------------------------------------------------| 
E|-3-2-1-3b-0-0-0-5b-0-0-0--3b-0-0-0-3b-0-5b-0-6b-0------------------------------| 

You get the idea there, number of times you hit the open string between each bend varies  
so just don't 
be an idiot. 

e|---------------------------------------------------------------------------| 
B|---------------------------------------------------------------------------| 
G|---------------------------7-7-7-7-----------------------------------------| 
D|---------------------------7-7-7-7-----------------------------------------| 
A|---------------------------5-5-5-5-----------------------------------------| 
E|-0-0-0-0-0-0-0-0-0-etc etc-0-0-0-0-----------------------------------------| 

When strumming the power chord gradually reduce palm muting 

So Drink Up Riff: 

e|---------------------------------------------------------------------------| 
B|---------------------------------------------------------------------------| 
G|---------------------------------------------------------------------------| 
D|---------------------------------------------------------------------------| 
A|---------------------------------------------------------------------------| 
E|-0-5h6p5-3h5p3-4-5-6-0-5h6p5-3h5p3-3p0-0-0-0-0-----------------------------| 

e|---------------------------------------------------------------------------| 
B|---------------------------------------------------------------------------| 
G|-7\5-7---------------------------------------------------------------------| 
D|-7\5-7---------------------------------------------------------------------| 
A|-5\3-5---------------------------------------------------------------------| 
E|-------5h6p5-3h5p3-4-5-6-0-5h6p5-3h5p3-3p0-0-0-0-0-------------------------| 

And repeat 

Chorus: 

e|---------------------------------------------------------------------------| 
B|---------------------------------------------------------------------------| 
G|-7\5-7--------7/5-7--------------------------------------------------------| 
D|-7\5-7-x-0--0-7/5-7-x-0--0-------------------------------------------------| 
A|-5\3-5-x-0--0-5/3-5-x-0--0-------------------------------------------------| 
E|-------x-0--0-------x-0--0--3-5-6-5-3h5-3p0-3p0-0-0-0-0--------------------| 

The rest is anyone's guess 

************************************ 

| /   slide up 
| \   slide down 
| h   hammer-on 
| p   pull-off 
| ~   vibrato 
| +   harmonic 
| x   Mute note 
| b   Bend 
| pb  Pre-bend 
| br  Bend release 
| pbr Pre-bend release 
| brb Bend release bend 

************************************ 
		  

auto scroll beats size up size down change color hide chords drawings
tab show chords e-chords YouTube Clip e-chords hide all tabs e-chords go to top tab

share