Dos Minutos

home > Dos Minutos

14 Botellas Tab

Dos Minutos

Difficulty: nolevelnolevel

by tarikike

tuner correct add songbook print version text version save to e-mail
chordsukulelecavacokeyboardtabbassdrumsharmonicsflute Guitar Pro
chords

14 Botellas

  		 bueno, esta cancion me la han pedido varias personas 
asi q trabaje en ella y aqui esta: 

INTRO: 

al principio empieza con un tarreo grande 
y la guitarra toca esto: 

|-------------------------| 
|-------------------------|  se toca las veces que sean  
|-------------------------|  necesarias 
|-7--7--7--7--7--7--7--7--| 
|-5--5--5--5--5--5--5--5--| 
|-------------------------| 

VERSO 1 

|---------------------------| 
|---------------------------|   * = se tocan esos espacios 
|------------------2--2--2--|      las veces q sean necesarias 
|--7---6---5---4---2--2--2--|      y escucha la cancion para saber 
|--5*--4*--3*--2*--0--0--0--|      los tiempos y ritmos. 
|---------------------------| 

|----------------------------| 
|----------------------------|  aca lo mismo: escucha la cancion 
|----------------------------|  para saber los tiempos y el ritmo 
|--4---5---7------4---7--7---| 
|--4---5---7------2*--5--5---| 
|--2*--3*--5*----------------| 

VERSO 2 

|-------------------| 
|-------------------| 
|-------------------|   X  2 
|------7-------7----|   
|--5---5*--7---5*---| 
|--3*------5*-------| 


EL ORDEN ES:  INTRO 
              VERSO 1  X 4 
              VERSO 2  X 2 
              VERSO 1  X 2 

OK...cualquier duda o sugerencia o algun tema que quieran 
me avisan a mi correo....chao hasta la proxima!!
	  

Search Paypal
auto scroll beats size up size down change color hide chords drawings
tab show chords e-chords YouTube Clip e-chords hide all tabs e-chords go to top tab