Dope

2014 Teaser

Dope

tabs

by  ADALGOMES

save to print version add songbook text version e-mail correct tuner
chordsukulelecavacokeyboardtabbassdrumsharmonicaflute Guitar Pro
close

there isn't a video lesson for this song

chords

2014 Teaser

	  		

First Riff 
A |----------------------------------| 
F#|----------------------------------| 
D |----------------------------------| 
A |----------------------------------| 
E |----------------------------------| 
A |-0000--00--0000--0000-------------| 
    |   '   |   '   |   '   |   '    

And then this lead comes in over it 
(These are sixteenth notes, I just put the spaces in for clarity) 
A |-12-0-0-0-7-0-0-0-8-0-0-0-7-0-0-0-12-0-0-0-7-0-0-0-8-0-0-0-10-0-0-0- 
F#|-------------------------------------------------------------------- 
D |-------------------------------------------------------------------- 
A |-------------------------------------------------------------------- 
E |-------------------------------------------------------------------- 
A |-------------------------------------------------------------------- 

   -12-0-0-0-7-0-0-0-8-0-0-0-7-0-0-0-12-0-0-0-7-0-0-0-8-0-0-0-13-0-0-0-| 
   --------------------------------------------------------------------| 
   --------------------------------------------------------------------| 
   --------------------------------------------------------------------| 
   --------------------------------------------------------------------| 
   --------------------------------------------------------------------| 
    

Next Riff 
 Rhythm: 
A |-----------------------------------------------------------------| 
F#|-----------------------------------------------------------------| 
D |-----------------------------------------------------------------| 
A |-----------------------------------------------------------------| 
E |-0-00------0--0--0-00----0-008\\-0-00--000-0-00----0000--0-008\\-| 
A |-0-00------0--0--0-00----0-008\\-0-00--000-0-00----0000--0-008\\-| 
    |   '   |   '   |   '   |   '   |   '   |   '   |   '   |   '    
                                ^^^                             ^^^ 
                               (Play the 8th fret and then slide down)  

 Lead: 
 Eighth notes strummed while gradually bending the F# string up a half step and then back down 
A |-7-7-7-7-7-7-7-7-7-7-7-7-7-7-7-7-7-7-7-7-7-7-7-7-0-0-0-0-0-0-0-0-| 
F#|-9-9-9-9-9-9-9-9-9-9-9-9-9-9-9-9-9-9-9-9-9-9-9-9-2-2-2-2-2-2-2-2-| 
D |-----------------------------------------------------------------| 
A |-----------------------------------------------------------------| 
E |-----------------------------------------------------------------| 
A |-----------------------------------------------------------------| 
    |   '   |   '   |   '   |   '   |   '   |   '   |   '   |   ' 
		  

See also:

tabs Ira! - Eu Quero Sempre Mais (Com Pitty, intro) tabs Deep Purple - Sometimes a Feel Like Screaming tabs Deep Purple - Money Talks tabs Albert Hammond Jr - St. Justice tabs Ira! - Tarde Vazia (Acústico) tabs Deep Purple - Smoke On The Water
e-chords

Other versions:

tabs Dope - 2014 Teaser
auto scroll beats size up size down change color hide chords drawings
tab show chords e-chords YouTube Clip e-chords hide all tabs e-chords go to top tab

share