Doobie Brothers

home > Doobie Brothers

Flying cloud Tab

Doobie Brothers

Difficulty: nolevelnolevel

by europeu

tuner correct add songbook print version text version save to e-mail
chordsukulelecavacokeyboardtabbassdrumsharmonicsflute Guitar Pro
chords

Flying cloud

  		Flying Cloud by: Doobie Brothers 
e------------------------0-------------------0---------------------0h2----------0--------------| 
------0----2-----------------1-------0h1-------1-------------3-------------0-------0------3p0--| 
------1----1----1---------------0-------------------------2----------------1----------1--------| 
------2----2----2--------------------------------------0-------------------2-------------------| 
------2----2----2----------------------------------------------------------2-------------------| 
E-----0--------------------------------------------------------------------0-------------------| 
 
e--------------------0------------------| 
-------0----0-----------0------1p0------| 
-------0----0--------------0-------0----|	?³X2 
-------2----2------------------------2--| 
-------3----3---------------------------| 
E------3----3---------------------------| 
 
e-----------------0------0-----------------------------7-8-5-6-3-4-2-3-0-2-------------------| 
------------------3----------3-----3--------------------------------------------0-3-1-3-1-0--| 
------------------0--------------0----0------------------------------------------------------| 
----------2-------2--------------------------------------------------------------------------| 
--------2---------2--------------------------------------------------------------------------| 
E----0------------0--------------------------------------------------------------------------| 
 
e-----------------------------------------------| 
---------0--0------0---0-----0---0------0----2--| 
---------4--6------4---6-----4---6------4----1--| 
---------4--6------4---6-----4---6------4----2--| 
---------0--0------0---0-----0---0------0-------| this is a very rough outline 
E-----------------------------------------------| of this part 
- whistling added as well 
 
Go back into the first on twice, and then the second one twice. The second one goes with  
third one, so do that: on the second time going into the third on, don¡¦t do the high e  
just go like this: 
 
e------0----------2----------------2--| 
-----------3---------3-------------3--| 
---------------0--------0----------0--|	you can add the bass string 
---------------------------2-------2--| 
-----------------------------------2--| 
E-------------------------------------| 
 
  

	  

Search Paypal
auto scroll beats size up size down change color hide chords drawings
tab show chords e-chords YouTube Clip e-chords hide all tabs e-chords go to top tab