Don Omar

Ayer La Vi

Don Omar

tabs Beginner beginner

by  LINEKERS

save to print version add songbook text version e-mail correct tuner
chordsukulelecavacokeyboardtabbassdrumsharmonicaflute Guitar Pro
close

there isn't a video lesson for this song

chords

Ayer La Vi

	  		1- -------------------|-----------------------------------  
2- -------------------|------10---11---13---10------------ 
3- -------------------|--12-------------------12---10h12-- 
4- -------------------|----------------------------------- 
5- -12/7p0--8--10--13-|----------------------------------- 
6- -------------------|----------------------------------- 



1- -------------------------|--10--11--13--11--10---------  
2- -------------------------|----------------------------- 
3- -------------------------|-----------------------12---- 
4- --12---13---12---10---12-|----------------------------- 
5- -------------------------|----------------------------- 
6- -------------------------|----------------------------- 



1- -------------------------------------------------------  
2- --------------10--11--13--10--------------------------- 
3- ------12-----------------------12---10p12---12/7p0-----  
4- ------------------------------------------------------- 
5- ------------------------------------------------------- 
6- ------------------------------------------------------- 

h = ligado ascendente 

p = ligado descendente 

/ = traslado 
		  

See also:

tabs Don Omar - Ayer La Vi tabs Calle 13 - Calma Pueblo
e-chords

Other versions:

tabs Don Omar - Ayer La Vi
auto scroll beats size up size down change color hide chords drawings
tab show chords e-chords YouTube Clip e-chords hide all tabs e-chords go to top tab

share