Don Broco

Priorities

Don Broco

tabs

by  LINEKERS

save to print version add songbook text version e-mail correct tuner
chordsukulelecavacokeyboardtabbassdrumsharmonicaflute Guitar Pro
close

there isn't a video lesson for this song

chords

Priorities

	  		
e|----------------------------------0-------------------------------------------| 
B|----------------------------------0-------------------------------------------| 
G|-7-9-9-7-9-{9}-12-9-{9}-7--9-7-9--5-------------------------------------------| 
D|-x-x-x-x-x-{0}-x--x-{0}-x--x-x-x--0-------------------------------------------| 
A|-5-7-7-5-7-{x}-10-7-{0}-5--7-5-7--x-------------------------------------------| 
D|-5-7-7-5-7-{x}-10-7-{x}-5--7-5-7--0-------------------------------------------| 


Heavy bit of intro: (play twice) 
   

e|--------------------------0--0--0----------------------------0--0--0--------| 
B|--------------------------0--0--0----------------------------7--7--7--------| 
G|--------------------------5--5--5----------------------------5--5--5--------| 
D|-7-7-5-7-0-10-7-0-5-7-5-7-0--0--0---7-7-5-7-0-10-7-0-5-7-5-7-0--0--0--------| 
A|-7-7-5-7-0-10-7-0-5-7-5-7-0--0--0---7-7-5-7-0-10-7-0-5-7-5-7-0--0--3--------| 
D|-7-7-5-7---10-7---5-7-5-7-0--0--0---7-7-5-7---10-7---5-7-5-7-0--0--0--------| 



Verses:  

             *let ring                  *(2 seperate guitars on record) 

e|---------------------------------------------------------------------------| 
B|---------------------------------------------------------------------------| 
G|-----------0----10p9-------------------------------------------------------| 
D|---------------------10-12-10----------------------------------------------| 
A|------------------------------12~----10-10-10-10-10------------------------| 
D|-7-7-7-5-7---------------------------12-12-12-12-12------------------------| 

e|-----------10--------------------------------------------------------------| 
B|-----1--------<12>---------------------------------------------------------| 
G|---0----0---------<12>-----------------------------------------------------| 
D|---------------------------------------------------------------------------| 
A|---------------------------------------------------------------------------| 
D|-3-----------------------------0-0-0-0-5-5-5-5-----------------------------| 


Pre-chorus: 


e|---------------------------------------------------------------------------| 
B|----------------------------------0-0-0------------------------------------| 
G|-7/9-9-7-9-{9}-12-9-{9}-7--9-7-9--5-5-5------------------------------------| 
D|-7/x-x-x-x-{0}-x--x-{0}-x--x-x-x--0-0-0------------------------------------| 
A|-5/7-7-5-7-{x}-10-7-{0}-5--7-5-7--x-x-x------------------------------------| 
D|-5/7-7-5-7-{x}-10-7-{x}-5--7-5-7--0-0-0------------------------------------| 



e|---------------------------------------------------------------------------| 
B|--------------------------------7-7-7--------------------------------------| 
G|-7/9-9-7-9-{9}-12-{9}-7--9-7-9--5-5-5--------------------------------------| 
D|-x/x-x-x-x-{0}-x--{0}-x--x-x-x--0-0-0--------------------------------------| 
A|-5/7-7-5-7-{x}-10-{0}-5--7-5-7--x-x-x--------------------------------------| 
D|-5/7-7-5-7-{x}-10-{x}-5--7-5-7--0-0-0--------------------------------------| 



Chorus: 


1. Mate, you know how much you've changed... 
2. My Friend, my friend, my friend... 
e|---------------------------------------------------------------------------| 
B|-5-5-5-5-5-5-5-5-5-5---5-5-5-5-5-5-5-5-5-----------------------------------| 
G|-5-5-5-5-5-5-5-5-5-5---5-5-5-5-5-5-5-5-5----9--9--9--9--9--9--9--9--9--9---| 
D|-x-x-x-x-x-x-x-x-x-x---x-x-x-x-x-x-x-x-x----10-10-10-10-10-10-10-10-10-10--| 
A|-3-3-0-3-0-3-0-3-0-3---3-0-3-0-3-0-3-0-3----7--7--0--7--0--7--0--7--0--7---| 
D|-3-3-0-3-0-3-0-3-0-3---3-0-3-0-3-0-3-0-3----7--7--0--7--0--7--0--7--0--7---| 

1....yesterday                    2. ...that you can bail on. 
e|---------------------------------------------------------------------------| 
B|---------------------------------------------------------------------------| 
G|-9--9--9--9--9--9--9--9--9-------------------------------------------------| 
D|-10-10-10-10-10-10-10-10-10------14-14-14-0-14-14-14-14-14-----------------| 
A|-x--x--x--x--x--x--x--x--x-------12-0--12-0-12-0--12-0--12-----------------| 
D|-10-0--10-0--10-0--10-0--10------12-0--12-0-12-0--12-0--12-----------------| 


Middle section: Play 4 times, twice lightly, twice smash it. 

       *Low E 5th fret played with thumb. 


e|-0-0-0-0-0-0--0--<12>---------0-0-0-0-0-------0----0-----------------------| 
B|-0-0-0-0-0-0--0--<12>--12~~---0-0-0-0-0-------0------0---------------------| 
G|-5-5-5-5-5-0--0--<12>--12~~---5-5-5-5-5-------5--5-----5-0-----------------| 
D|-7-7-7-7-7-10-7--<12>---------7-7-7-7-5-------0----------------------------| 
A|-----------------<12>-------------------------5----------------------------| 
D|-7-7-5-7---10-7--<12>---------7-7-5-7-5-7-10--0----------------------------| 



Chorus. (Second time emphasise low strings and get your gain on) 


Outro as heavy part of intro. 


End on: 

e|-0-------------------------------------------------------------------------| 
B|-0-------------------------------------------------------------------------| 
G|-5-------------------------------------------------------------------------| 
D|-0-------------------------------------------------------------------------| 
A|---------------------------------------------------------------------------| 
D|---------------------------------------------------------------------------|  
		  

See also:

tabs Jake Bugg - What Doesn't Kill You tabs Arctic Monkeys - Do I Wanna Know? tabs Oasis - Where Did It All Go Wrong tabs Bush - Everything zen tabs Oasis - DonīT Go Away tabs Oasis - Hey Hey My My (Into The Black)
e-chords

Other versions:

tabs Don Broco - Priorities
auto scroll beats size up size down change color hide chords drawings
tab show chords e-chords YouTube Clip e-chords hide all tabs e-chords go to top tab

share