Django Reinhardt

Over The Rainbow

Django Reinhardt

tabs

by  PAULLET3

save to print version add songbook text version e-mail correct tuner
chordsukulelecavacokeyboardtabbassdrumsharmonicaflute Guitar Pro
close

there isn't a video lesson for this song

chords

Over The Rainbow

Year: 2004 - Album: Django in Rome 1949-1950

	  		   
Verse 
    G                                                 D/F# 
E||------------------------|-3----------------------|-2--------------0-------|-2--------------3-------| 
B||------------------------|------------------------|----------3-------------|------------------------| 
G||o0--------------0-------|----------------0-------|------------------------|------------------------| 
D||o------0-----------0----|-------0-----------0----|-------0-----------0----|-------0-----------0----| 
A||------------------------|------------------------|------------------------|------------------------| 
E||-3-----------3----------|-3-----------3----------|-2-----------2----------|-2-----------2----------| 
    1  &  2  &  3  &  4  &   1  &  2  &  3  &  4  &   1  &  2  &  3  &  4  &   1  &  2  &  3  &  4  & 


   Em                                                 Bm 
E||------------------------|-0----------------------|------------------------|------------------------| 
B||------------------------|------------------------|-3--------------------3-|----------------------3-| 
G||-0--------------0-------|----------------0-------|----------------4-------|----------------4-------| 
D||-------2-----------2----|-------2-----------2----|-------4-----------4----|-------4-----------4----| 
A||------------------------|------------------------|-2-----------2----------|-2-----------2----------| 
E||-0-----------0----------|-0-----------0----------|------------------------|------------------------| 
    1  &  2  &  3  &  4  &   1  &  2  &  3  &  4  &   1  &  2  &  3  &  4  &   1  &  2  &  3  &  4  & 
  
  
    C                                                 G 
E||------------------------|------------------------|------------------------|------------------------| 
B||------------------------|-1----------------------|-0----------------------|-0--------------1-------| 
G||----------------0-------|-----------------0------|----------0-----2-------|------------------------| 
D||-------2-----------2----|--------2-----------2---|-------0-----------0----|-------0-----------0----| 
A||-3-----------3----------|-3-----------3----------|------------------------|------------------------| 
E||------------------------|------------------------|-3-----------3----------|-3-----------3----------| 
     1  &  2  &  3  &  4  &   1  &  2  &  3  &  4  &   1  &  2  &  3  &  4  &   1  &  2  &  3  &  4  & 


    D/F#                                               G                      |1st time                       
E||------------------------|-------------------------|------------------------|------------------------|| 
B||------------------------|-----------------0-------|------------------------|------------------------|| 
G||-2--------------0-------|--2----------------------|-0--------------0-----0-|----------------0-----0-o| 
D||-------0--4--------0----|--------0-----------0----|-------0-----------0----|-------0-----------0----o| 
A||------------------------|-------------------------|------------------------|------------------------|| 
E||-2-----------2----------|--2-----------2----------|-3-----------3----------|-3-----------3----------|| 
    1  &  2  &  3  &  4  &   1  &  2  &  3  &  4  &   1  &  2  &  3  &  4  &   1  &  2  &  3  &  4  & 



    2nd time                 Chorus 
    G                        G                                                 Am 
E||------------------------|------------------------|------------------------|------------------------| 
B||-------------------3----|-0-----3-----0--3-----0-|----3-----0-----3-------|-1-----3-----1--3-----1-| 
G||----------------0-------|------------------------|------------------------|------------------------| 
D||-------0----------------|-------0-----------0----|-------0-----------0----|-------2-----------2----| 
A||------------------------|------------------------|------------------------|-0-----------0----------| 
E||-3-----------3----------|-3-----------3----------|-3-----------3----------|------------------------| 
    1  &  2  &  3  &  4  &   1  &  2  &  3  &  4  &   1  &  2  &  3  &  4  &   1  &  2  &  3  &  4  & 



   Am                       C                            
E||------------------------|-0-------------------0--|------------------------|------------------------| 
B||----3-----1-----3-------|------------------------|----------------------1-|------------------------| 
G||------------------------|----------------0-------|----------------0-------|----------------0-----0-| 
D||-------2-----------2----|-------2-----------2----|-------2-----------2----|-------2-----------2----| 
A||-0-----------0----------|-3-----------3----------|-3-----------3----------|-3-----------3----------| 
E||------------------------|------------------------|------------------------|------------------------| 
    1  &  2  &  3  &  4  &   1  &  2  &  3  &  4  &   1  &  2  &  3  &  4  &   1  &  2  &  3  &  4  & 


                         G                                                  A7 
e||------------------------|------------------------|------------------------|-------0--------0-------| 
B||-------------------3----|-0-----3-----0--3-----0-|----3-----0-----3-------|-2-----------2--------2-| 
G||----------------0-------|------------------------|------------------------|------------------------| 
D||-------2----------------|-------0-----------0----|-------0-----------0----|-------2-----------2----| 
A||-3-----------3----------|------------------------|------------------------|-0-----------0----------| 
E||------------------------|-3-----------3----------|-3-----------3----------|------------------------| 
 1  &  2  &  3  &  4  &   1  &  2  &  3  &  4  &   1  &  2  &  3  &  4  &   1  &  2  &  3  &  4  & 



                                                           
                                                          
   D7                                                                          Back to top 
e||----0-----------0-------|-2----------------------|-5----------------------|p0---------------------|| 
B||----------2-----------2-|----------------1-------|----------------3-------|-----------------------|| 
G||------------------------|-------2-----------2----|-------5-----------5----|----------------------o|| 
D||-------2-----------2----|-0-----------0----------|-0-----------0----------|----------------------o|| 
A||-0-----------0----------|------------------------|------------------------|-----------------------|| 
E||------------------------|------------------------|------------------------|-----------------------|| 
    1  &  2  &  3  &  4  &   1  &  2  &  3  &  4  &   1  &  2  &  3  &  4  &   1  &  2  &  3  &  4  &   


    3rd time 
Outro 
   G                        G                                                Am 
e||------------------------|------------------------|------------------------|------------------------| 
B||-------------------3----|-0-----3-----0--3-----0-|----3-----0-----3-------|-1-----3-----1--3-------| 
G||----------------0-------|------------------------|------------------------|------------------------| 
D||-------0----------------|-------0-----------0----|-------0-----------0----|-------2-----------2----| 
A||------------------------|------------------------|------------------------|-0-----------0----------| 
E||-3-----------3----------|-3-----------3----------|-3-----------3----------|------------------------| 
    1  &  2  &  3  &  4  &   1  &  2  &  3  &  4  &   1  &  2  &  3  &  4  &   1  &  2  &  3  &  4  & 



    C                        D7                        G let ring 
e||-0----------------------|-2----------------------|-3L---3L---|--3L---|--3----|| 
B||----------------1-------|----------------1-------|-0L---0L---|--0L---|--0----|| 
G||------------------------|-------2-----------2----|-0L---0L---|--0L---|--0----|| 
D||-------2-----------2----|-0-----------0----------|-0L---0L---|--0L---|--0----|| 
A||-3-----------3----------|------------------------|-2L---2L---|--2L---|--2----|| 
E||------------------------|------------------------|-3L---3L---|--3L---|--3----|| 
    1  &  2  &  3  &  4  &   1  &  2  &  3  &  4  &   1  &  2  &  3  &  4  &  



PM- Palm mute technique 
		  

Full key step upFull key step up
Half key step upHalf key step up
Half key step downHalf key step down
Full key step downFull key step down
hide glossary

See also:

tabs Django Reinhardt - Tears tabs Django Reinhardt - Belleville tabs Django Reinhardt - Appelle Direct tabs Django Reinhardt - Fleche D'or tabs Django Reinhardt - Montagne Sainte-genevieve tabs Django Reinhardt - It Dont Mean A Thing
e-chords

Other versions:

tabs Django Reinhardt - Over The Rainbow
auto scroll beats size up size down change color hide chords drawings
tab show chords e-chords YouTube Clip e-chords hide all tabs e-chords go to top tab

share