Dizzy Mizz Lizzy

Fly Above The Radar

Dizzy Mizz Lizzy

tabs

by  EDUCASTILHO

save to print version add songbook text version e-mail correct tuner
chordsukulelecavacokeyboardtabbassdrumsharmonicaflute Guitar Pro
close

there isn't a video lesson for this song

chords

Fly Above The Radar

(Tim Christensen & Martin Nielsen)

	  		
Tuning: C G C F A D 


Intro, Instrumental Chorus 

 Am                                       G                                       Am 
            PM       PM   PM--|                      PM       PM   PM--| 
-----|-------------------|--------------------|-------------------|-------------------| 
-----|-------------------|--------------------|-------------------|-------------------| 
-----|--------9--------9-|------9-11-9--------|--------7--------7-|------7-9-7--------| 
-9---|---12---9---12---9-|------9--9-9-12-7---|---11---7---11---7-|------7-7-7-11-9---| 
-9---|----9---9----9---9-|------9--9-9--9-7---|----7---7----7---7-|------7-7-7--7-9---| 
-9---|------9--------9---|9-9-9-----------7---|------7--------7---|7-7-7----------9---| 


                                     G                                       Bb 
       PM       PM   PM--|                      PM       PM   PM--| 
|-------------------|--------------------|-------------------|--------------------| 
|-------------------|--------------------|-------------------|--------------------| 
|--------9--------9-|------9-11-9--------|--------7--------7-|------7-9-7---------| 
|---12---9---12---9-|------9--9-9-12-7---|---11---7---11---7-|------7-7-7-11-10---| 
|----9---9----9---9-|------9--9-9--9-7---|----7---7----7---7-|------7-7-7--7-10---| 
|------9--------9---|9-9-9-----------7---|------7--------7---|7-7-7----------10---| 


                                           Am                                      Ab 
       PM       PM       PM--|                        PM       PM   PM--| 
|-----------------------|----------------------|-------------------|--------------------| 
|-----------------------|----------------------|-------------------|--------------------| 
|---------11~--------11-|------11-12-11--------|--------9--------9-|------9-11-9--------| 
|---14-----x---14----10-|------10-10-10-14-9---|---12---9---12---9-|------9--9-9-12-8---| 
|---10-----x---10----10-|------10-10-10-10-9---|----9---9----9---9-|------9--9-9--9-8---| 
|------10---------10----|10-10-------------9---|------9--------9---|9-9-9-----------8---| 


                                    Eb                 G 
       PM        PM   PM|                           PM                   PM 
|--------------------|------------------|------------------|---------------------| 
|--------------------|------------------|------------------|---------------------| 
|---------9~-------9-|----9-10-9-10-----|------------------|---------------------| 
|---12----x---12---8-|----8--8-8--8-3---|--------------7---|----------------12~--| 
|----8----x----8---8-|----8--8-8--8-3---|--------------7---|----------------12~--| 
|------8---------8---|8-8-----------3---|---7---8---10-7---|---11---12---14-12~--|  
		  

See also:

tabs Dizzy Mizz Lizzy - Forward In Reverse tabs Dizzy Mizz Lizzy - Take It Or Leave It tabs Dizzy Mizz Lizzy - Made To Believe tabs Dizzy Mizz Lizzy - Silverflame tabs Dizzy Mizz Lizzy - Frey tabs Dizzy Mizz Lizzy - 11:07:00 PM
e-chords

Other versions:

tabs Dizzy Mizz Lizzy - Fly Above The Radar
auto scroll beats size up size down change color hide chords drawings
tab show chords e-chords YouTube Clip e-chords hide all tabs e-chords go to top tab

share