Disturbed

home > Disturbed

Liberate (ver. 2) Tab

Disturbed

Difficulty: nolevelnolevel

tuner correct add songbook print version text version save to e-mail
chordsukulelecavacokeyboardtabbassdrumsharmonicsflute Guitar Pro
chords

Liberate (ver. 2)

  		Transcribed By: Bryan Bramlett ([email protected]) 
 
Tuning: Drop D, 1/2 Step Down (Db,Ab,Db,Gb,Bb,Eb) 
 
INTRO: 
|----------------------| 
|----------------------| 
|----------------------| 
|----------------------| 
|-0h2-2222-222-0h2-0h2-| 
|-0h2-2222-222-0h2-0h2-| 
 
VERSE: 
|---------------------------------------------------------------| 
|---------------------------------------------------------------| 
|---------------------------------------------------------------| 
|---------------------------------------------------------------| 
|---------------------------------------------------------------| 
|-52-2-02-222222233-3-3-388-8-8-8-82-2-02-222222252-2-02-222222-| 
 
|------------------------------------------------------------| 
|------------------------------------------------------------| 
|------------------------------------------------------------| 
|------------------------------------------------------------| 
|--------------------------------------------------------5-0-| 
|-52-2-02-222222233-3-3-388-8-8-8-82-2-02-222222252-2-02-5-0-| 
 
BRIDGE: 
|----------------------------------------------------------------| 
|----------------------------------------------------------------| 
|----------------------------------------------------------------| 
|----------------------------------------------------------------| 
|----------------------------------------------------------------| 
|-22222222222222220000009999999910101010101010101010101010101010-| 
 
|----------------| 
|----------------| 
|----------------| 
|----------------| 
|----------------| 
|-55555599999999-| 
 
FILL: 
|-----------------| 
|-----------------| 
|-----------------| 
|-----------------| 
|-7-7-7--XX-7-6-6-| 
|-7-7-7--XX-7-7-7-| 
 
CHORUS: 
|------------------------|    |-------------------------| 
|------------------------|play|-------------------------| 
|------------------------| 3X |-------------------------| 
|-5-55-4-44-4--5-5-4-2---|then|-7-77-7-77-7-4-44-4-44---| 
|-3-33-3-33-3--2-2-2-2-5-|    |-5-55-5-55-5-2-22-2-22-5-| 
|--------------2-2-2-2-2-|    |-----------------------5-| 
 
INTERLUDE: 
|---------------------------------------------------------| 
|---------------------------------------------------------| 
|-----------2-------------<7>-----------2-----------------| 
|---------3------------<7>------------3------------<7>----| 
|-2-2-2-2-----2-2-2-<7>-------2-2-2-2-----2-2-2-<7>---<7>-| 
|-2-2-2-------2-2-2-----------2-2-2-------2-2-2-----------| 
 
INTERLUDE 2: 
|--------------------------------------| 
|--------------------------------------| 
|--------------2-------------------<7>-| 
|------------3------------<7>---<7>----| 
|-2-2-2-XX-2-----2-2-2-XX----<7>-------| 
|-2-2-2-XX-------2-2-2-XX--------------| 
 
|--------------------------------------| 
|--------------------------------------| 
|--------------2-----------------------| 
|------------3------------<7>---<7>----| 
|-2-2-2-XX-2-----2-2-2-XX----<7>---<7>-| 
|-2-2-2-XX-------2-2-2-XX--------------| 
 
CHORUS FILL: 
|----------------| 
|----------------| 
|----------------| 
|-5--4--5--4-2---| 
|-3--3--2--2-2-5-| 
|-------2--2-2-2-| 
	  

Search Paypal
auto scroll beats size up size down change color hide chords drawings
tab show chords e-chords YouTube Clip e-chords hide all tabs e-chords go to top tab