Disturbed

home > Disturbed

Liberate Tab

Disturbed

Difficulty: nolevelnolevel

tuner correct add songbook print version text version save to e-mail
chordsukulelecavacokeyboardtabbassdrumsharmonicsflute Guitar Pro
chords

Liberate

  		|------------KEY-------------| 
| h =Hammer on               | 
| po =Pull Off               | 
| / =Slide Up                | 
| \ =Slide Down              | 
|  x =Mute strings           |     
| *= slight palm mute        | 
| p= pause                   | 
|----------------------------| 
 
Intro               X4  Main Riff	  x4 
|-------------------------|-------------------------| 
|-------------------------|-------------------------| 
|-------------------------|-------------------------| 
|-------------------------|-------------------------| 
|-------------------------|-0h2-0h2-0h2-0h2-2-2-2-2-| 
|-0h2-0h2-0h2-0h2-2-2-2-2-|-0h2-0h2-0h2-0h2-2-2-2-2-| 
 
Fill   Versex2 
|-----|--------------------------------------| 
|-----|--------------------------------------| 
|-----|--------------------------------------| 
|-----|-2-0h2-0h2p-0h2-2--2-2-2--3-3--3-3-3/8--8-8--8-8-| 
|-9\2-|-2-0h2-0h2p-0h2-2--2-2-2--3-3--3-3-3/8--8-8--8-8-| 
|-9\2-|-2-0h2-0h2p-0h2-2--2-2-2--3-3--3-3-3/8--8-8--8-8-| 
 
|-x-------------------------------------| 
|-x-------------------------------------| 
|-x-------------------------------------| 
|-x-2-2-0h2-0h2p-2-2-2-2-2-0h2-0h2-0h2-2-2-2-2-2-| 
|-x-2-2-0h2-0h2p-2-2-2-2-2-0h2-0h2-0h2-2-2-2-2-2-| 
|-x-2-2-0h2-0h2p-2-2-2-2-2-0h2-0h2-0h2-2-2-2-2-2-| 
	 
fill 2 
                                    
|-----| 
|-----| 
|-----| 
|-2po0-| 
|-2po0-| 
|-2po0-| 
 
Verse part 2 x2 
|------------------------------------------------------| 
|------------------------------------------------------| 
|------------------------------------------------------| 
|-3-3-3-3-3-3\2-2-2-2/5-5-5-5/7-7-7-7/9-9-9-9-9-9| 
|------------------------------------------------------| 
|-3-3-2-3-3-3\2-2-2-2/5-5-5-5/7-7-7-7/9-9-9-9-9-9| 
						     
|-----------------------------------------------------| 
|-----------------------------------------------------| 
|-----------------------------------------------------| 
|-5-5/7-7-7-------------------------------------------| 
|-----------------------------------------------------| 
|-5-5/7-7-7-------------------------------------------| 
 
Prechorus 
|-------x-----------| 
|-------x-----------| 
|-------x-----------| 
|-7-7-7-x-8-7-7-----| 
|-7-7-7-x-8-7-7-----| 
|-7-7-7-x-x-7-7-15\-| 
 
Chorus			  
|-----------------------------------------------x-x-----------------------------------------------| 
|-----------------------------------------------x-x-----------------------------------------------| 
|-----------------------------------------------x-x-----------------------------------------------| 
|-10-10-9-9-9-9--4-4-4-4-10-10-9-9-9-9--2-2-2-2-x-x-10-10-9-9-9-9--4-4-4-4-3-3-3-3-7h9-9-9-9...---| 
|-10-10-7-7-7-7--4-4-4-4-10-10-7-7-7-7--2-2-2-2-x-x-10-10-7-7-7-7--4-4-4-4-3-3-3-3-7h9-9-9-9...---| 
|-10-10-7-7-7-7--4-4-4-4-10-10-7-7-7-7--2-2-2-2-x-x-10-10-7-7-7-7--4-4-4-4-3-3-3-3-7h9-9-9-9...-2-| 
 
fill 3 
|-x-x-x-x-| 
|-x-x-x-x-| 
|-x-x-x-x-| 
|-x-x-x-x-| 
|-x-x-x-x-| 
|-x-x-x-x-| 
 
 
 
Interlude 
|------------------------------------------------------| 
|------------------------------------------------------| 
|--------------------------7*---------------------7*---| 
|-2-2-2-----3--2-2-2p-----7*---2-2-2-----3-2-2-2p--7*--| 
|-2-2-2-2-3----2-2-2p----7*----2-2-2-2-3---2-2-2p---7*-| 
|-2-2-2--------2-2-2p----------2-2-2-------2-2-2p------| 
 
Interlude part 2					     x3 
|--------------------------------------------------------------| 
|---------------------------------------------------------7*---| 
|----------------------------7*--------------------------------| 
|-2-2-2-----3--2-2-2---7*--7*----2-2-2-----3--2-2-2---7*-------| 
|-2-2-2-2-3----2-2-2-----7*------2-2-2-2-3----2-2-2-----7*--7*-| 
|-2-2-2--------2-2-2-------------2-2-2--------2-2-2------------| 
 
Fill 4    x2 
| ----------| 
|----------| 
|----------| 
|-10-9-4-4--10-9-2-2| 
|-10-7-4-4--10-7-2-2| 
|-10-7-4-4--10-7-2-2| 
 
Outro chorus				        
|------------------------------------------------| 
|------------------------------------------------| 
|------------------------------------------------| 
|-10-10-9-9-9-9--4-4-4-4-3-3-3-3-7h9-x-9-x-9-x-9-| 
|-10-10-7-7-7-7--4-4-4-4-3-3-3-3-7h9-x-9-x-9-x-9-| 
|-10-10-7-7-7-7--4-4-4-4-3-3-3-3-7h9-x-9-x-9-x-9-| 
			  
(continued) 
|-----------------------------------------------x-x--------------------------------|-----------------| 
|-----------------------------------------------x-x--------------------------------|-----------------| 
|-----------------------------------------------x-x--------------------------------|-----------------| 
|-10-10-9-9-9-9--4-4-4-4-10-10-9-9-9-9--2-2-2-2-x-x-10-10-9-9-9-9--4-4-4-4-3-3-3-3-|-----------------| 
|-10-10-7-7-7-7--4-4-4-4-10-10-7-7-7-7--2-2-2-2-x-x-10-10-7-7-7-7--4-4-4-4-3-3-3-3-|-----------------| 
|-10-10-7-7-7-7--4-4-4-4-10-10-7-7-7-7--2-2-2-2-x-x-10-10-7-7-7-7--4-4-4-4-3-3-3-3-|-7h9-7h9-7h9-7h9-| 
 
Outro                
                        x4                        x3  
|-------------------------|-------------------------||-------------------------| 
|-------------------------|-------------------------||-------------------------| 
|-------------------------|-------------------------||-------------------------| 
|-------------------------|-0h2-0h2-0h2-0h2-2-2-2-2-||-0h2-0h2-0h2-0h2-2-2-2-2-| 
|-------------------------|-0h2-0h2-0h2-0h2-2-2-2-2-||-0h2-0h2-0h2-0h2-2-2-2-2-| 
|-0h2-0h2-0h2-0h2-2-2-2-2-|-0h2-0h2-0h2-0h2-2-2-2-2-||-0h2-0h2-0h2-0h2-2-2-2-2-| 
 
 
*order* 
 
 
intro 
main riff 
fill 
verse 
fill2 
verse2 
prechorus 
chorus 
intro 
main riff 
fill3 
verse 
fill2 
verse2 
prechorus 
chorus 
interlude 
interlude2 
fill4 
outro chorus 
outro 
 
 
THANX DISTURBED 4 ANOTHER KIKIN' ASS SONG. 
 
ANITHING TO [email protected] 
 
PLEASE RATE!... 
 

	  

Search Paypal
auto scroll beats size up size down change color hide chords drawings
tab show chords e-chords YouTube Clip e-chords hide all tabs e-chords go to top tab