Dio

Rainbow In The Dark Intro

Dio

tabs Expert expert

by  HOGENHAM69

save to print version add songbook text version e-mail correct tuner
chordsukulelecavacokeyboardtabbassdrumsharmonicaflute Guitar Pro
close

there isn't a video lesson for this song

chords

Rainbow In The Dark Intro

	  		Rainbow in the Dark 

p=palm mute 

standard tuning 

INTRO 

E----2-2------------3------------ 
B----2-2------------3------------ 
G----2-2------------------------- x3 
D----2-2-22----------------------   
A----0-0-00-3-3-3-5---55-3-2-0--- 
E--------00-1-0-1-3---33-------3- 
         pp           pp           



E---2-2-------------- 
B---2-2-------------- 
E---2-2-------------- 
D---2-2-22----------- 
A---0-0-00-3-3-3-5--- 
E-------00-1-0-1-3--- 
        pp 

Verse 

E----2-2------------3------------ 
B----2-2------------3------------ 
G----2-2------------------------- About 8 times 
D----2-2-22----------------------   
A----0-0-00-3-3-3-5---55-3-2-0--- 
E--------00-1-0-1-3---33-------3- 
         pp           pp 

Chorus 

E---3------------------3--- 
B---3------------------3--- 
G-------------------------- 
D-------------------------- 
A-5----5--5-6-7-6-5--5---5- 
E-3----3--3-4-5-4-3--3---3- 

Then he goes back to playin the Verse and so on 
E-mail me for questions at [email protected] 
		  

See also:

tabs Heart - Barracuda tabs Eagles - Hotel California tabs The Beatles - Black Bird tabs Queen - Bohemian Rhapsody tabs Deep Purple - Smoke On The Water (Easy Intro) tabs Eric Clapton - Layla
e-chords

Other versions:

tabs Dio - Rainbow In The Dark Intro
auto scroll beats size up size down change color hide chords drawings
tab show chords e-chords YouTube Clip e-chords hide all tabs e-chords go to top tab

share