Diante do Trono

De Todo Coração Tab

Diante do Trono

Difficulty: nolevelnolevel

by eduardo%5Flyvio

tuner correct add songbook print version text version save to e-mail
chordsukuleleukulelecavacokeyboardtabbassdrumsharmonicsflute Guitar Pro
close

there isn't a video lesson for this song

chords

De Todo Coração

  		e||--4/5\4----------4-5p4----5/7-7h9--7-----------7-----11/12\11------------------ 
B||---------5-----5--------5-------------4-5-7p5-----------------12--------------- 
G||-----------4-----------------------------------------------------11------------ 
D||------------------------------------------------------------------------------- 
A||------------------------------------------------------------------------------- 
E||------------------------------------------------------------------------------- 
 
e||-------------12h11------16-17-19-17-------------------------------------------- 
B||----------12-------12------------------16-17-19p17p16-------------------------- 
G||----11-13------------------------------------------------18p16-16h18p16-16----- 
D||-14---------------------------------------------------------------------------- 
A||------------------------------------------------------------------------------- 
E||------------------------------------------------------------------------------- 
 
e||------------------------------------------------------------------------------- 
B||---4-5-7-5-4-5-7p5p4-7p5p4-5p4p2---0------------------------------------------- 
G||------------------------------------------------------------------------------- 
D||------------------------------------------------------------------------------- 
A||------------------------------------------------------------------------------- 
E||------------------------------------------------------------------------------- 
 
 

	  

Search Paypal
auto scroll beats size up size down change color hide chords drawings
tab show chords e-chords YouTube Clip e-chords hide all tabs e-chords go to top tab

share with facebook