Devo

Secret Agent Man

Devo

tabs Beginner beginner

save to print version add songbook text version e-mail correct tuner
chordsukulelecavacokeyboardtabbassdrumsharmonicaflute Guitar Pro
close

there isn't a video lesson for this song

chords

Secret Agent Man

Year: 1993 - Album: Live 1980

	  		Transcribed by: Greenie12 
Email: [email protected] 
 
Intro: 
   
    Em          D       A     E          D       A  
-|-------------------------|-------------------------|- 
-|-------------------------|-------------------------|- 
-|-------------------------|-------------------------|- 
-|-------------------------|-------------------------|- 
-|--------------5----------|--------------5----------|- 
-|--0--0--1--0-----0--6p5--|--0--0--1--0-----0--6p5--|- 
    
    Em          D       A     Em          D       A                      
-|-------------------------|-------------------------|- 
-|-------------------------|-------------------------|- 
-|-------------------------|-------------------------|- 
-|-------------------------|-------------------------|- 
-|--------------5----------|--------------5----------|- 
-|--0--0--1--0-----0--6p5--|--0--0--1--0-----0--6p5--|- 
 
Verse: 
 
    Em          D       A     Em          D       A 
-|-------------------------|-------------------------|- 
-|-------------------------|-------------------------|- 
-|-------------------------|-------------------------|- 
-|-------------------------|-------------------------|- 
-|--------------5----------|--------------5----------|- 
-|--0--0--1--0-----0--6p5--|--0--0--1--0-----0--6p5--|- 
 
Pre-Chorus: 
 
    B                       B                       B    A 
-|-----------|-----------|-----------|-----------|------------|- 
-|--7--------|-----------|--7--------|-----------|--7----5----|- 
-|--8--------|-----------|--8--------|-----------|--8----6----|- 
-|--9--------|-----------|--9--------|-----------|--9----7----|- 
-|--9--------|-----------|--9--------|-----------|--9----7----|- 
-|--7--------|-----------|--7--------|-----------|--7----5----|- 
                                                                               
                                            
-|-------------------------|-----------|- 
-|-------------------------|-----------|- 
-|-------------------------|-----------|- 
-|-------------------------|-----------|- 
-|--------------5----------|-----------|- 
-|--0--0--1--0-----0--6p5--|--0--------|- 
        
Chorus:                                                                        
 
    D           A           B            Em           A 
-|-----------|-----------|------------|------------|-----------|- 
-|--7--------|--5--------|--7---------|--9---------|--5--------|- 
-|--7--------|--6--------|--8---------|--9---------|--6--------|- 
-|--7--------|--7--------|--9---------|--9---------|--7--------|- 
-|--5--------|--7--------|--9---------|--7---------|--7--------|- 
-|-----------|--5--------|--7---------|------------|--5--------|- 
            
 
    B           D    A                                                  
-|-----------|------------|- 
-|--7--------|--7----5----|- 
-|--8--------|--7----6----|- 
-|--9--------|--7----7----|- 
-|--9--------|--5----7----|- 
-|--7--------|-------5----|- 
 
Synth Solo: 
 
-|-----------------------------------------------------|- 
-|-----------------------------------------------------|- 
-|--------------------------9--10--11-12--13-14-15-16--|- 
-|-----------------------------------------------------|- 
-|--7--8--9--10--12--13--14----------------------------|- 
-|-----------------------------------------------------|- 
 
-|---------------------------------------------------|- 
-|---8--------------------------------------------8--|- 
-|------9--7--------------------------------7--9-----|- 
-|------------9--5-----------------5--7--9-----------|- 
-|------------------7--5--3--5--7--------------------|- 
-|---------------------------------------------------|-          
 
    Depress w/bar  
-|-----------------------------------------------------------)--------|- 
-|--15p12h15p12h15p12h15p12h15p12...-----15--12--14--12----17----15\--|- 
-|--------------------------------------------------------------------|- 
-|--------------------------------------------------------------------|- 
-|--------------------------------------------------------------------|- 
-|--------------------------------------------------------------------|- 
 
-|--------------------|--------------------|-------------------------|- 
-|--------------------|--------------------|-------------------------|- 
-|--------------------|--------------------|-------------------------|- 
-|--------------------|--------------------|-------------------------|- 
-|--------------------|--------------------|-------------------------|- 
-|--0--3--0--6--6--6--|--0--3--0--6--6--6--|--0--3--0--6-5--3--5--3--|- 
 
-|--------------------|--------------------|-------------------------|- 
-|--------------------|--------------------|-------------------------|- 
-|--------------------|--------------------|-------------------------|- 
-|--------------------|--------------------|-------------------------|- 
-|--------------------|--------------------|-------------------------|- 
-|--0--3--0--6--6--6--|--0--3--0--6--6--6--|--0--3--0--6-5--3--5--3--|- 
 
 
End with D, A, Em 
 

		  

Full key step upFull key step up
Half key step upHalf key step up
Half key step downHalf key step down
Full key step downFull key step down
auto scroll beats size up size down change color hide chords drawings
tab show chords e-chords YouTube Clip e-chords hide all tabs e-chords go to top tab

share