D'espairsRay

Lost Scene

D'espairsRay

tabs

by  LINEKERS

save to print version add songbook text version e-mail correct tuner
chordsukulelecavacokeyboardtabbassdrumsharmonicaflute Guitar Pro
close

there isn't a video lesson for this song

chords

Lost Scene

	  		
Guitar I (0:01) 

e|-----| 
B|-----| 
G|-----| 
D|-----| 
A|-0-0-| 
D|-0-0-| 

Guitar II (0:01) 

e|---17--18--17------17---15----15------17--20--17----17---15-------15-| 
B|-15--15--15-----15---15----13------15---15--15----15--15----13-13----| 
G|---------------------------------------------------------------------| 
D|---------------------------------------------------------------------| x2 
A|---------------------------------------------------------------------| 
D|---------------------------------------------------------------------| 


Guitar I (0:11 - 0:26) 
e|-----------------------------------------------| 
B|-----------------------------------------------| 
G|-----------------------------------------------| 
D|-----------------------------------------------| 
A|-0-0-1-0-000--0-0-1-0-000--0-0-1-0-000-3x1-1-1-| 
D|-0-0-1-0-000--0-0-1-0-000--0-0-1-0-000-3x1-1-1-| 

Guitar I plays this 
e|---------------------------------| 
B|---------------------------------| 
G|---------------------------------| 
D|---------------------------------| 
A|-0-0-1-0-0--0-1-0-1-3--0-0-1-0-0-| 
D|-0-0-1-0-0--0-1-0-1-3--0-0-1-0-0-| 

Guitar II (0:11 - 0:26)  

e|---17--18--17------17---15----15------17--20--17----17---15-------15-| 
B|-15--15--15-----15---15----13------15---15--15----15--15----13-13----| 
G|---------------------------------------------------------------------| 
D|---------------------------------------------------------------------| x2 
A|---------------------------------------------------------------------| 
D|---------------------------------------------------------------------| 

Guitar I plays this like 4 times... and Guitar II plays all the time the same part. 
e|-----------------------------------------------| 
B|-----------------------------------------------| 
G|-----------------------------------------------| 
D|-----------------------------------------------| 
A|-0-0-1-0-000--0-0-1-0-000--0-0-1-0-000-3x1-1-1-| 
D|-0-0-1-0-000--0-0-1-0-000--0-0-1-0-000-3x1-1-1-| 

Both guitars play it two times! 
e|--------------------------------------------------------------| 
B|--------------------------------------------------------------| 
G|-7-7-7-7--7-7-7-7-7--14-14-14-14--12-12-12-12--12-12-12-12-12-| 
D|-x-x-x-x--x-x-x-x-x--x--x--x--x---x--x--x--x---x--x--x--x--x--| 
A|-5-5-5-5--5-5-5-5-5--12-12-12-12--10-10-10-10--10-10-10-10-10-| 
D|--------------------------------------------------------------| 

Then both guitars plays this part! 
e|---------------------------------------------------| 
B|---------------------------------------------------| 
G|---------------------------------------------------| 
D|---------------------------------------------------| 
A|-0-0-1-0-000--0-0-1-0-000--0-0-1-0-000-0-0-1-0-000-| x2 
D|-0-0-1-0-000--0-0-1-0-000--0-0-1-0-000-0-0-1-0-000-| 

Chorus (BOTH GUITARS PLAY THE SAME PART) 
e|---------------------------------------------------------------------------| 
B|---------------------------------------------------------------------------| 
G|---------------------------------------------------------------------------| 
D|-(10's-here!)----------------(1's-here!)------(6's-here)-------------------| 
A|-10-10-10-1010101010101010--1-1-1-11111111--6-6-6-66666666--8-8-8-88888888-| 
D|-10-10-10-1010101010101010--1-1-1-11111111--6-6-6-66666666--8-8-8-88888888-| 

And second time (it's a bit different) 
e|---------------------------------------------------------------------------| 
B|---------------------------------------------------------------------------| 
G|---------------------------------------------------------------------------| 
D|-(10's-here!)----------------(1's-here!)------(6's-here)-------------------| 
A|-10-10-10-1010101010101010--1-1-1-11111111--6-6-6-66666666--6-6-6-66888888-| 
D|-10-10-10-1010101010101010--1-1-1-11111111--6-6-6-66666666--6-6-6-66888888-| 
		  

See also:

tabs Mymp - Beauty And Madness tabs Mymp - Tell Me Where It Hurts (ver. 2) tabs Abingdon Boys School - Kimi No Uta tabs Mymp - Tell Me Where It Hurts (ver. 4) tabs New Starting Over - Story Ending tabs X Japan - Endless Rain
e-chords

Other versions:

tabs D'espairsRay - Lost Scene
auto scroll beats size up size down change color hide chords drawings
tab show chords e-chords YouTube Clip e-chords hide all tabs e-chords go to top tab

share