Deluxe Trio

Chuva

Deluxe Trio

tabs

save to print version add songbook text version e-mail correct tuner
chordsukulelecavacokeyboardtabbassdrumsharmonicaflute Guitar Pro
close

there isn't a video lesson for this song

chords

Chuva

Key:  A More
Chuva Key EE
Chuva Key FF
Chuva Key F#F#
Chuva Key GG(one step down)
Chuva Key G#G#(half step down)
Chuva Key AA(original key)
Chuva Key A#A#(half step up)
Chuva Key BB(one step up)
Chuva Key CC
Chuva Key C#C#
Chuva Key DD
Chuva Key D#D#
	  		 
intro: 
 
B|-10-10-8-8-10-10-----8-----8- 
G|-7-7--7-7--7-7------7-----7-  (2x) 
D|-------5-5-------0-0-5-0-0-5- 
 
A G D G G 
Quis te surpreender como uma forte chuva de verão 
E como tudo vai ser daqui pra frente entre eu e você. 
 
B|-10-10-8-8-10-10-----8-----8- 
G|--7-7--7-7--7-7------7-----7- 
D|-------5-5-------0-0-5-0-0-5- 
 
A G D G G 
Volte a me fazer correr sem medo de perder você 
e eu juro que eu não vou fechar os olhos, nem me esquecer. 
 
D G A G 
Nada mudou e agora eu posso entender e agora eu posso entender         
Nada mudou e agora eu posso entender que nem sempre podemos prometer 
 
Riff1 (2x) 
Não quer dizer que eu saiba sempre o que fazer... 
 
RIFF1 
e|-------3---3------------------- 
B|---------3---3---------8-----8- 
G|-7-------------7-------7-----7- 
D|-7-7-5---------7-7-0-0-5-0-0-5- 
A|-5-7-5---------5-7------------- 
E|---5-3-----------5------------- 
 
D G A G 
Nada mudou e agora eu posso entender e agora eu posso entender         
Nada mudou e agora eu posso entender que nem sempre podemos prometer 
 
G|-7-7-9-9-11-11-12-12-14-14-14-14-12-12-11-9- 
D|-x-x-x-x-x--x--x--x--x--x--x--x--x--x--x--x-  (2x) 
A|-5-5-7-7-9--9--10-10-12-12-12-12-10-10-9--7- 
 
e|-------3---3-------------------------3---3--------------------------- 
B|---------3---3---------8-----8---------3---3---------8-----8-----8--- 
G|-7-------------7-------7-----7-7-------------7-------7-----7-----7-7- 
D|-7-7-5---------7-7-0-0-5-0-0-5-7-7-5---------7-7-0-0-5-0-0-5-0-0-5-7- 
A|-5-7-5---------5-7-------------5-7-5---------5-7-------------------5- 
E|---5-3-----------5---------------5-3-----------5--------------------- 
 
 
_______________________________________________________ 
Contribuição: Diovani Pg([email protected]) 

		  

Full key step upFull key step up
Half key step upHalf key step up
Half key step downHalf key step down
Full key step downFull key step down
hide glossary

See also:

tabs Roupa Nova - A Lenda (solo) tabs Cachorro Grande - De baixo do chapéu tabs Roupa Nova - A Viagem tabs Dragon Ball - Tema De Abertura Do Gt tabs Roupa Nova - Linda Demais (Acústico) tabs KLB - Um Anjo
e-chords

Other versions:

tabs Deluxe Trio - Chuva tabs John Bala Jones - Chuva tabs Alda Célia - Chuva de Avivamento tabs Roupa Nova - Chuva de Prata tabs Roupa Nova - Chuva de Prata (ver. 2) tabs Voz da Verdade - Chuva De Sangue
auto scroll beats size up size down change color hide chords drawings
tab show chords e-chords YouTube Clip e-chords hide all tabs e-chords go to top tab

share