Delirious

Fires Burn

Delirious

tabs

by  VICTBORGES

save to print version add songbook text version e-mail correct tuner
chordsukulelecavacokeyboardtabbassdrumsharmonicaflute Guitar Pro
close

there isn't a video lesson for this song

chords

Fires Burn

Year: 2005 - Album: The Mission Bell

	  		

Tuning: Standard 

Intro and Verse one 
e|-------------------------------------------------------------------------| 
B|-------------------------------------------------------------------------| 
G|-----4---4-------4---4-------4---4-------4---4-------4---4-------4---4---| 
D|---4---4---4---4---4---4---4---4---4---4---4---4---4---4---4---4---4---4-| 
A|-2-----------2-----------0-----------0-----------------------------------| 
E|-------------------------------------------------3-----------3-----------| 

e|------------------------| 
B|------------------------| 
G|----4---4-------4---4---| 
D|--4---4---4---4---4---4-| 
A|------------------------| 
E|0-----------0-----------| 

Pre-Chorus 
e|---------------------------------------------------------------------------| 
B|---------------------------------------------------------------------------| 
G|-----3-----3-----3---------------------------------------------------------| 
D|---2-----0-----2-----------------------------------------------------------| 
A|-------------0-------------------------------------------------------------| 
E|-0-----3-------------------------------------------------------------------| 

Play chords in Bm for Chorus 

Verse Two 
e|---------------------------------------------------------------------------| 
B|---------------------------------------------------------------------------| 
G|---------------------------------------------------------------------------| 
D|-4-4-4-4-4-4-4-4-2-2-2-2-2-2-2-2-7-7-7-7-7-7-7-7-5-5-5-5-5-5-5-5-----------| 
A|---------------------------------------------------------------------------| 
E|---------------------------------------------------------------------------| 

e|---------------------------------------------------------------------------| 
B|---------------------------------------------------------------------------| 
G|---------------------------------------------------------------------------| 
D|-4-4-4-4-4-4-4-4-2-2-2-2-2-2-2-2-7-7-7-7-7-7-7-7-9-9-9-9-9-9-9-9-----------| 
A|---------------------------------------------------------------------------| 
E|---------------------------------------------------------------------------| 

That's what I have for now.  I'll try to get to the solo sometime in the future. 

************************************ 

| /   slide up 
| \   slide down 
| h   hammer-on 
| p   pull-off 
| ~   vibrato 
| +   harmonic 
| x   Mute note 
| b   Bend 
| pb  Pre-bend 
| br  Bend release 
| pbr Pre-bend release 
| brb Bend release bend 

************************************ 
		  

Full key step upFull key step up
Half key step upHalf key step up
Half key step downHalf key step down
Full key step downFull key step down
hide glossary

See also:

tabs Kelly Clarkson - Behind These Hazel Eyes tabs Michael Jackson - Beat it tabs Michael Jackson - Heal The World tabs Decode Acoustic - Paramore tabs Steven tyler & Santana - Just feel better(intro) tabs Michael Jackson - Billie Jean (Fingerstyle)
e-chords

Other versions:

tabs Delirious - Fires Burn
auto scroll beats size up size down change color hide chords drawings
tab show chords e-chords YouTube Clip e-chords hide all tabs e-chords go to top tab

share