Delirious

Fire

Delirious

tabs

by  VICTBORGES

save to print version add songbook text version e-mail correct tuner
chordsukulelecavacokeyboardtabbassdrumsharmonicaflute Guitar Pro
close

there isn't a video lesson for this song

chords

Fire

	  		

Tuning: Standard 

Intro 
e|--------------------------------------------| 
B|--------------------------------------------| 
G|--------------------------------------------| 
D|0h2-2-2-2-2-----------0h2-2-2-2-2-----------| 
A|------------0-0-0-0-0-----------------------| 
E|----------------------------------3-3-3-3-3-| 

e|--------------------------------------------| 
B|--------------------------------------------| 
G|--------------------------------------------| 
D|0h2-2-2-2-2-----------0h2-2-2-2-2-----------| 
A|------------0-0-0-0-0-----------------------| 
E|----------------------------------3-3-3-3-3-| 

e|------------------------| 
B|------------------------| 
G|------------------------| 
D|-------0h2------0h2-----| 
A|--------------------0h2-| 
E|-0-0-0----0-0-0---------| 

e|------------------------| 
B|------------------------| 
G|------------------------| 
D|-------0h2------0h2-----| 
A|--------------------0h2-| 
E|-0-0-0----0-0-0---------| 

Verse 
e|------------------------| 
B|------------------------| 
G|------------------------| 
D|-------0h2------0h2-----|  Repeat 4 Times 
A|--------------------0h2-| 
E|-0-0-0----0-0-0---------| 

e|------------------------------| 
B|------------------------------| 
G|------------------------------| 
D|------------------------------| 
A|------------------------------| 
E|-3---3---3---3---1---1---1---1| 

e|------------------------| 
B|------------------------| 
G|------------------------| 
D|-------0h2------0h2-----|  Repeat 6 Times 
A|--------------------0h2-| 
E|-0-0-0----0-0-0---------| 

e|------------------------------| 
B|------------------------------| 
G|------------------------------| 
D|------------------------------| 
A|------------------------------| 
E|-3---3---3---3---1---1---1---1| 

e|------------------------| 
B|------------------------| 
G|------------------------| 
D|-------0h2------0h2-----|  Repeat 2 Times 
A|--------------------0h2-| 
E|-0-0-0----0-0-0---------| 

PreChorus 
e|---------------------------------------------------------------------------| 
B|---------------------------------------------------------------------------| 
G|---------------------------------------------------------------------------| 
D|---------------------------------------------0-1------0h2-2-0--------------| 
A|-------------------------------------------------------------2-0-----------| 
E|-5-5-------------3-3-------------1-1-------------0-0-0-----------3-0-3b-5-5| 

e|---------------------------------------------------------------------------| 
B|---------------------------------------------------------------------------| 
G|---------------------------------------------------------------------------| 
D|---------------------------------------------------------------------------| 
A|---------------------------------------------------------------------------| 
E|-------------3-3-------------1-1-----------/-------------------------------| 

Chorus 
e|--------------------------------------------| 
B|--------------------------------------------| 
G|--------------------------------------------| 
D|0h2-2-2-2-2-----------0h2-2-2-2-2-----------| 
A|------------0-0-0-0-0-----------------------| 
E|----------------------------------3-3-3-3-3-| 

e|--------------------------------------------| 
B|--------------------------------------------| 
G|--------------------------------------------| 
D|0h2-2-2-2-2-----------0h2-2-2-2-2-----------| 
A|------------0-0-0-0-0-----------------------| 
E|--------------------------------------------| 

That's about it.  Once you get the hang of it, fairly easy. 


************************************ 

| /   slide up 
| \   slide down 
| h   hammer-on 
| p   pull-off 
| ~   vibrato 
| +   harmonic 
| x   Mute note 
| b   Bend 
| pb  Pre-bend 
| br  Bend release 
| pbr Pre-bend release 
| brb Bend release bend 

************************************ 
		  

See also:

tabs Kelly Clarkson - Behind These Hazel Eyes tabs Michael Jackson - Beat it tabs Michael Jackson - Heal The World tabs Decode Acoustic - Paramore tabs Steven tyler & Santana - Just feel better(intro) tabs Michael Jackson - Billie Jean (Fingerstyle)
e-chords

Other versions:

tabs Jane's Ground - Fire tabs Jimi Hendrix - Fire tabs Jimi Hendrix Experience - Fire tabs Red Hot Chili Peppers - Fire tabs Soulfly - Fire tabs Yngwie Malmsteen - Fire
auto scroll beats size up size down change color hide chords drawings
tab show chords e-chords YouTube Clip e-chords hide all tabs e-chords go to top tab

share