Deirdre Cartwright

Heavenly Body

Deirdre Cartwright

tabs

by  LUCICAMARGO

save to print version add songbook text version e-mail correct tuner
chordsukulelecavacokeyboardtabbassdrumsharmonicaflute Guitar Pro
close

there isn't a video lesson for this song

chords

Heavenly Body

	  		
Tabbed by: MajesticCatDog 
I had to do it for school but couldn't find any chords online so I decided to make some. 

Tuning:Standard 
Chords: E, G, C, F 

e|--------------0------------------------------------------0-------------------------| 
B|--------------------2-------------------------------------------2------------------| 
G|-------0-----------------------------------0---------------------------------------| 
D|-----------------------------------------------------------------------------------| 
A|-----------------------------------------------------------------------------------| 
E|-----------------------------------------------------------------------------------| 

e|------------0---------------0----------------0--------------0----------------------| 
B|---0---0--------0-------3--------3-------2------2-------1------1-------------------| X2 
G|--------------------0----------------0-------------0-------------------------------| 
D|-----------------------------------------------------------------------------------| 
A|-----------------------------------------------------------------------------------| 
E|-----------------------------------------------------------------------------------| 
     E    E    G    G    G     C    C    F   F   E   E    G    G    G   C   C    F   F   F 
e|---0----0----3----3----3-----0----0----1---1---0---0----3----3----3---0---0----1---1---1------| 
B|---0----0----0----0----0-----1----1----1---1---0---0----0----0----0---1---1----1---1---1------| 
G|---1----1----0----0----0-----0----0----2---2---1---1----0----0----0---0---0----2---2---2------| 
D|---2----2----0----0----0-----2----2----3---3---2---2----0----0----0---2---2----3---3---3------| 
A|---2----2----2----2----2-----3----3------------2---2----2----2----2---3---3-------------------| 
E|---0----0----3----3----3-----------------------0---0----3----3----3---------------------------| 
     E   E     E   G   G   G   G    C   C    C    F   F   F   F 
e|---0---0-----0---3---3---3---3----0---0----0----1---1---1---1------------------------| 
B|---0---0-----0---0---0---0---0----1---1----1----1---1---1---1------------------------|X2 
G|---1---1-----1---0---0---0---0----0---0----0----2---2---2---2------------------------| 
D|---2---2-----2---0---0---0---0----2---2----2----3---3---3---3------------------------| 
A|---2---2-----2---2---2---2---2----3---3----3-----------------------------------------| 
E|---0---0-----0---3---3---3---3-------------------------------------------------------| 

e|-------0-------0-----------------------------------0-------0---3-------------------| 
B|---0-------0-------3-------1---3---1---3---0---0-------0-----------1---0-----------| 
G|---------------------------------------------------------------------------2---0---| 
D|-----------------------------------------------------------------------------------| 
A|-----------------------------------------------------------------------------------| 
E|-----------------------------------------------------------------------------------| 
     E       E   F       F      E   E   F   F   F   F 
e|---0-------0---1-------1---|--0---0---1---1---1---1---------------------------------| 
B|---0-------0---1-------1---|--0---0---1---1---1---1---------------------------------| 
G|---1-------1---2-------2---|--1---1---2---2---2---2---------------------------------| 
D|---1-------1---3-------3---|--1---1---3---3---3---3---------------------------------| 
A|---2-------2---------------|--2---2-------------------------------------------------| 
E|---0-------0---------------|--0---0-------------------------------------------------| 
		  

auto scroll beats size up size down change color hide chords drawings
tab show chords e-chords YouTube Clip e-chords hide all tabs e-chords go to top tab

share