Deftones

home > Deftones

Smile Tab

Deftones

Difficulty: nolevelnolevel

by ang%2Dletra

tuner correct add songbook print version text version save to e-mail
chordsukulelecavacokeyboardtabbassdrumsharmonicsflute Guitar Pro
chords

Smile

Key:  F# More
Smile Key C#C#
Smile Key DD
Smile Key D#D#
Smile Key EE(one step down)
Smile Key FF(half step down)
Smile Key F#F#(original key)
Smile Key GG(half step up)
Smile Key G#G#(one step up)
Smile Key AA
Smile Key A#A#
Smile Key BB
Smile Key CC
  		

GUITAR 1 - STEF 

INTRO/PRE verse 1 

E ||----------------------------------------------| 
B ||----------------------------------------13-13-| 
G ||-12-12-12--12-12-12-12--12-12-12--15-15-------| 
D ||----------------------------------------------| x8 
A ||----------------------------------------------| 
E ||----------------------------------------------| 
B ||----------------------------------------------| 
F#||----------------------------------------------| 


verse 1 

E ||-----------------------------------------------| 
B ||-13v--13v--13v--13v--13v--13v--------13--------| 
G ||-------------------------------12-15----15--12-| 
D ||-----------------------------------------------| 
A ||-----------------------------------------------| 
E ||-----------------------------------------------| 
B ||-----------------------------------------------| 
F#||-----------------------------------------------| 

E ||-----------------------------------------------| 
B ||-------------------------------------13--------| 
G ||-12/--15v--15v--15v--15v--15v--12-15----15--12-| 
D ||-----------------------------------------------| 
A ||-----------------------------------------------| 
E ||-----------------------------------------------| 
B ||-----------------------------------------------| 
F#||-----------------------------------------------| 

E ||-----------------------------------------------| 
B ||------13v--13v--13v--13v--13v--------13--------| 
G ||-12----------------------------12-15----15--12-| 
D ||-----------------------------------------------| 
A ||-----------------------------------------------| 
E ||-----------------------------------------------| 
B ||-----------------------------------------------| 
F#||-----------------------------------------------| 

E ||-----------------------------------------------| 
B ||-------------------------------------13--------| 
G ||-12/--15v--15v--15v--15v--15v--12-15----15--12-| 
D ||-----------------------------------------------| 
A ||-----------------------------------------------| 
E ||-----------------------------------------------| 
B ||-----------------------------------------------| 
F#||-----------------------------------------------| 


Chorus 1 

E ||---------------------------------------------| 
B ||--------15-----15----------------------------| 
G ||-12--14-----14----14-12------12-----15-12----| 
D ||-------------------------12------12-------13-| x2 
A ||---------------------------------------------| 
E ||---------------------------------------------| 
B ||---------------------------------------------| 
F#||---------------------------------------------| 

E ||---------------------------| 
B ||---------------------------| 
G ||--------12-15-----15-12----| 
D ||-12--13--------13-------13-| x2 
A ||---------------------------| 
E ||---------------------------| 
B ||---------------------------| 
F#||---------------------------| 


POST Chorus 1 

E ||-------------------------| 
B ||-------------------------| 
G ||---------12--------------| 
D ||-12--13------13--12~~~~~-| 
A ||-------------------------| 
E ||-------------------------| 
B ||-------------------------| 
F#||-------------------------| 


PRE verse 2 

E ||----------------------------------------------| 
B ||----------------------------------------13-13-| 
G ||-12-12-12--12-12-12-12--12-12-12--15-15-------| 
D ||----------------------------------------------| x4 
A ||----------------------------------------------| 
E ||----------------------------------------------| 
B ||----------------------------------------------| 
F#||----------------------------------------------| 


verse 2 

E ||-----------------------------------------------| 
B ||-13v--13v--13v--13v--13v--13v--------13--------| 
G ||-------------------------------12-15----15--12-| 
D ||-----------------------------------------------| 
A ||-----------------------------------------------| 
E ||-----------------------------------------------| 
B ||-----------------------------------------------| 
F#||-----------------------------------------------| 

E ||-----------------------------------------------| 
B ||-------------------------------------13--------| 
G ||-12/--15v--15v--15v--15v--15v--12-15----15--12-| 
D ||-----------------------------------------------| 
A ||-----------------------------------------------| 
E ||-----------------------------------------------| 
B ||-----------------------------------------------| 
F#||-----------------------------------------------| 

E ||-----------------------------------------------| 
B ||------13v--13v--13v--13v--13v--------13--------| 
G ||-12----------------------------12-15----15--12-| 
D ||-----------------------------------------------| 
A ||-----------------------------------------------| 
E ||-----------------------------------------------| 
B ||-----------------------------------------------| 
F#||-----------------------------------------------| 

E ||-----------------------------------------| 
B ||-----------------------------------------| 
G ||-12/--15v--15v--15v--15v--15v--15v--15v--| 
D ||-----------------------------------------| 
A ||-----------------------------------------| 
E ||-----------------------------------------| 
B ||-----------------------------------------| 
F#||-----------------------------------------| 


Chorus 2 

E ||---------------------------------------------| 
B ||--------15-----15----------------------------| 
G ||-12--14-----14----14-12------12-----15-12----| 
D ||-------------------------12------12-------13-| x2 
A ||---------------------------------------------| 
E ||---------------------------------------------| 
B ||---------------------------------------------| 
F#||---------------------------------------------| 

E ||---------------------------| 
B ||---------------------------| 
G ||--------12-15-----15-12----| 
D ||-12--13--------13-------13-| x2 
A ||---------------------------| 
E ||---------------------------| 
B ||---------------------------| 
F#||---------------------------| 


POST Chorus 2 

E ||------------------------------------------------------| 
B ||------------------------------------------------------| 
G ||---------12-------------------------------------------| 
D ||-12--13------13--12~very slow bend while fading out-| 
A ||------------------------------------------------------| 
E ||------------------------------------------------------| 
B ||------------------------------------------------------| 
F#||------------------------------------------------------| 


REST 


BRIDGE/PRE Chorus 

E ||----------------------------------------------| 
B ||----------------------------------------13-13-| 
G ||-12-12-12--12-12-12-12--12-12-12--15-15-------| 
D ||----------------------------------------------| x3 
A ||----------------------------------------------| 
E ||----------------------------------------------| 
B ||----------------------------------------------| 
F#||----------------------------------------------| 

E ||--------------------| 
B ||-13v--13v--13v--13v-| 
G ||--------------------| 
D ||--------------------| 
A ||--------------------| 
E ||--------------------| 
B ||--------------------| 
F#||--------------------| 


Chorus 3 

E ||---------------------------------------------| 
B ||--------15-----15----------------------------| 
G ||-12--14-----14----14-12------12-----15-12----| 
D ||-------------------------12------12-------13-| x4 
A ||---------------------------------------------| 
E ||---------------------------------------------| 
B ||---------------------------------------------| 
F#||---------------------------------------------| 

E ||---------------------------| 
B ||---------------------------| 
G ||--------12-15-----15-12----| 
D ||-12--13--------13-------13-| x2 
A ||---------------------------| 
E ||---------------------------| 
B ||---------------------------| 


OUTRO 

E ||---------------------------------| 
B ||---------------------------------| 
G ||---------12----------------------| 
D ||-12--13------13--12--13--12~~~~~-| 
A ||---------------------------------| 
E ||---------------------------------| 
B ||---------------------------------| 
F#||---------------------------------| 



GUITAR 2 - CHINO 

INTRO/PRE verse 1 (listen for rhythm) 

D||---------------------------| 
A||-5----------------10-------| 
F||-4-(x14)-slide-up-9--(x14)-| x3 
C||-2----------------7--------| 
G||-0----------------0--------| 
C||---------------------------| 


verse 1 

D||--------------|-----------| 
A||--------------|-----------| 
F||--------------|-9---------| x2 
C||-3--3--3--3-0-|-10--(x16)-| 
G||-3--3--3--3-0-|-7---------| 
C||-3--3--3--3-0-|-7---------| 

D||--------------|-----------| 
A||--------------|-----------| 
F||--------------|-14--------| x1 
C||-3--3--3--3-0-|-x---------| 
G||-3--3--3--3-0-|-12--(x16)-| 
C||-3--3--3--3-0-|-----------| 

D||--------------|----------| 
A||--------------|----------| 
F||--------------|-9--------| x1 
C||-3--3--3--3-0-|-x--(x16)-| 
G||-3--3--3--3-0-|-7--------| 
C||-3--3--3--3-0-|----------| 


Chorus 1 

D||-----------------------------|---------| 
A||-----------------------------|---------| 
F||-10----17-17-17-17-17--16b---|-9-------| x2 
C||-x--0--x--x--x--x--x---x-----|-x-(x16)-| 
G||-8--0--15-15-15-15-15--14b---|-7-------| 
C||----0----------------------0-|---------| 

D||-----------------------------------------------------------| 
A||-----------------------------------------------------------| 
F||-7--7-7-7/14-14-14-14-14--10/9\10--9--9-9--7--7-7--5-5-5-5-| 
C||-x--x-x-x-x--x--x--x--x---x--x-x---x--x-x--x--x-x--x-x-x-x-| 
G||-5--5-5-5/12-12-12-12-12--8/-7\8---7--7-7--5--5-5--3-3-3-3-| 
C||-----------------------------------------------------------| 

D||-------------------------------------| 
A||-------------------------------------| 
F||-10--10-10-10/17-17-17-17-17-17--16b-| 
C||-x---x--x--x--x--x--x--x--x--x---x---| 
G||-8---8--8--8-/15-15-15-15-15-15--14b-| 
C||-------------------------------------| 


POST Chorus 1 

D||-------------------| 
A||-------------------| 
F||-------------------| 
C||-0--0--0--0--0~~~~-| 
G||-0--0--0--0--0~~~~-| 
C||-0--0--0--0--0~~~~-| 


PRE verse 2 

D||---------------------------| 
A||-5----------------10-------| 
F||-4-(x14)-slide-up-9--(x14)-| x2 
C||-2----------------7--------| 
G||-0----------------0--------| 
C||---------------------------| 


verse 2 

D||--------------|-----------| 
A||--------------|-----------| 
F||--------------|-9---------| x2 
C||-3--3--3--3-0-|-10--(x16)-| 
G||-3--3--3--3-0-|-7---------| 
C||-3--3--3--3-0-|-7---------| 

D||--------------|-----------| 
A||--------------|-----------| 
F||--------------|-14--------| x1 
C||-3--3--3--3-0-|-x---------| 
G||-3--3--3--3-0-|-12--(x16)-| 
C||-3--3--3--3-0-|-----------| 

D||------------------------------| 
A||------------------------------| 
F||---------------9\7-9----------| x1 
C||-3--3--3--3-0--x-x-x--0--0--0-| 
G||-3--3--3--3-0--7\5-7--0--0--0-| 
C||-3--3--3--3-0---------0--0--0-| 


Chorus 2 

D||-----------------------------|---------| 
A||-----------------------------|---------| 
F||-10----17-17-17-17-17--16b---|-9-------| x2 
C||-x--0--x--x--x--x--x---x-----|-x-(x16)-| 
G||-8--0--15-15-15-15-15--14b---|-7-------| 
C||----0----------------------0-|---------| 

D||-----------------------------------------------------------| 
A||-----------------------------------------------------------| 
F||-7--7-7-7/14-14-14-14-14--10/9\10--9--9-9--7--7-7--5-5-5-5-| 
C||-x--x-x-x-x--x--x--x--x---x--x-x---x--x-x--x--x-x--x-x-x-x-| 
G||-5--5-5-5/12-12-12-12-12--8/-7\8---7--7-7--5--5-5--3-3-3-3-| 
C||-----------------------------------------------------------| 

D||-------------------------------------| 
A||-------------------------------------| 
F||-10--10-10-10/17-17-17-17-17-17--16b-| 
C||-x---x--x--x--x--x--x--x--x--x---x---| 
G||-8---8--8--8-/15-15-15-15-15-15--14b-| 
C||-------------------------------------| 


POST Chorus 2 

D||-------------------| 
A||-------------------| 
F||-------------------| 
C||-0--0--0--0--0~~~~-| 
G||-0--0--0--0--0~~~~-| 
C||-0--0--0--0--0~~~~-| 


BRIDGE/PRE Chorus 

D||-----------------------------| 
A||-x-------------------x-------| 
F||-9--(x14)-slide-down-2-(x14)-| x3 
C||-10------------------3-------| 
G||-0-------------------0-------| 
C||-----------------------------| 

D||-0--------------------| 
A||-x--------------------| 
F||-9--(x14)-------------| x1 
C||-10--------0--0--0--0-| 
G||-0---------0--0--0--0-| 
C||-----------0--0--0--0-| 


Chorus 3 

D||-----------------------------|---------| 
A||-----------------------------|---------| 
F||-10----17-17-17-17-17--16b---|-9-------| x4 
C||-x--0--x--x--x--x--x---x-----|-x-(x16)-| 
G||-8--0--15-15-15-15-15--14b---|-7-------| 
C||----0----------------------0-|---------| 

D||-----------------------------------------------------------| 
A||-----------------------------------------------------------| 
F||-7--7-7-7/14-14-14-14-14--10/9\10--9--9-9--7--7-7--5-5-5-5-| 
C||-x--x-x-x-x--x--x--x--x---x--x-x---x--x-x--x--x-x--x-x-x-x-| 
G||-5--5-5-5/12-12-12-12-12--8/-7\8---7--7-7--5--5-5--3-3-3-3-| 
C||-----------------------------------------------------------| 

D||-------------------------------------| 
A||-------------------------------------| 
F||-10--10-10-10/17-17-17-17-17-17--16b-| 
C||-x---x--x--x--x--x--x--x--x--x---x---| 
G||-8---8--8--8-/15-15-15-15-15-15--14b-| 
C||-------------------------------------| 


OUTRO 

D||-------------------------| 
A||-------------------------| 
F||-------------------------| 
C||-0--0--0--0--0--0--0~~~~-| 
G||-0--0--0--0--0--0--0~~~~-| 
C||-0--0--0--0--0--0--0~~~~-| 
	  

Search Paypal
auto scroll beats size up size down change color hide chords drawings
tab show chords e-chords YouTube Clip e-chords hide all tabs e-chords go to top tab