Default

Wasting My Time (Album Version)

Default

tabs Easy easy

save to print version add songbook text version e-mail correct tuner
chordsukulelecavacokeyboardtabbassdrumsharmonicaflute Guitar Pro
close

there isn't a video lesson for this song

chords

Wasting My Time (Album Version)

	  		 
Riff 1 (SEM DISTORÇÂO) 
 
e|-----0------5------| 
B|------0---0--3h0---| 
G|---2--3-3----------| 
D|---0---------------| 
A|-------------------| 
E|-------------------| 
 
 
Riff 02 (COM DISTORÇÃO) 
 
e|------------------------------------------| 
B|------------------------------------------| 
G|------------------------------------------| 
D|--5-5--5---------------5-5--5-------------| 
A|--5-5--5-0-5h7h5-0-----5-5--5-0-5h7h5-0---| 
E|--3-3--3---------------3-3--3-------------| 
 
 
Riff 03 (COM DISTORÇÃO) 
 
e|------------------------------------------| 
B|------------------------------------------| 
G|------------------------------------------| 
D|--9-9--9---------------9-9--9-------------| 
A|--9-9--9-7h9---9-7-----9-9--9-7h9---9-7---| 
E|--7-7--7-----7---------7-7--7-----7-------| 
 
INTRODUÇÃO - (RIFF 01) 
 
(RIFF 01) 
 
Well I don't want to see you waiting  
I've already gone too far away  
I still can't keep the day from ending  
No more messed up reasons for me to stay  
 
(RIFF 02) 
 
Well this is not for real, afraid to feel  
I just hit the floor, don't ask for more  
 
(RIFF 03) 
I'm wasting my time  
I'm wasting my time  
 
(RIFF 02) 
You can't stop the feeling, there is no reason  
Just make the call and take  
 
A5 
it all again  
Whoa again  
 
(RIFF 01) 
Months went by with us pretending  
When did our light turn from green to red?  
I took a chance and left you standing  
Lost the will to do this once again... 
 
 
(RIFF 02) 
Well this is not for real, afraid to feel  
I just hit the floor, don't ask for more  
 
(RIFF 03) 
I'm wasting my time  
I'm wasting my time  
 
(RIFF 02) 
You can't stop the feelin', there is no reason  
Just make the call and take it all  
 
(RIFF 03) 
I'm wasting my time 
I'm wasting my time  
 
A5 
again  
Whoa again  
 
 
(SOLO) Naum deu pra tirar... 
 
(RIFF 01) 
See you waitin'  
Lonesome, lonely  
I see you waitin'  
I see you waitin'  
 
(RIFF 02) 
Well this is not for real, afraid to feel  
I just hit the floor, don't ask for more  
 
(RIFF 03) 
I'm wasting my time  
I'm wasting my time  
 
(RIFF 02) 
You can't stop the feelin', there is no reason  
Just make the call and take it all  
 
(RIFF 03) 
I'm wasting my time  
I'm wasting my  
 
(RIFF 02) 
Well this is not for real, afraid to feel  
I just hit the floor, don't ask for more  
 
(RIFF 03) 
I'm wasting my time  
I'm wasting my time  
 
(RIFF 02) 
You can't stop the feelin', there is no reason  
Just make the call and take it  
 
A5 
all again 
Whoa again 
 
"Pra finalizar" (RIFF 01)  
 
_______________________________________________________ 
Contribuição: Felipe De Bonis([email protected]) 

		  

Full key step upFull key step up
Half key step upHalf key step up
Half key step downHalf key step down
Full key step downFull key step down
auto scroll beats size up size down change color hide chords drawings
tab show chords e-chords YouTube Clip e-chords hide all tabs e-chords go to top tab

share