Deep Purple

When a Blind man cries

Deep Purple

tabs Beginner beginner

by  PERETTO

save to print version add songbook text version e-mail correct tuner
chordsukulelecavacokeyboardtabbassdrumsharmonicaflute Guitar Pro
close

there isn't a video lesson for this song

chords

When a Blind man cries

Year: 1998 - Album: The Very Best of Deep Purple

	  		Deep Purple _ When a Blind man cries   
Tom: Bm      
 
 
 
INTRO: 
 
 
|-------------5--7--------------5--7---------------| 
|-------6(8)------------10--12--------12--10-------| 
|--2^4--------2--4--11----------2--4----------11---| 
|------------------------------------------------12| 
|--------------------------------------------------| 
|--------------------------------------------------| 
 
|------------------------| 
|------------------------| 
|--2^4--------4----------| 
|-------2--4-------------| 
|------------------------| 
|------------------------| 
 
 
 
 
Bm 
If you're leaving, close the door. 
A                        Bm 
I'm not expecting people anymore. 
Bm 
Hear me greaving, lying on the floor. 
A                           Bm 
Whether I'm drunk or dead I really ain't too sure. 
 
 
Bm              D 
I'm a blind man, I'm a blind man. 
G               Em 
And my world is pale. 
Bm                      D 
When a blind man cries, 
              G  F#/D     Em         Bm 
Lord you know there ain't no sadder tale. 
 
 
SOLO: 
 
e|-------------------------------------------------------------------------| 
B|---------------------10----------------------10--------------------------| 
G|---7-9b-9b-9b-9b-9b-----9br--9b-9b-9b-9b-9b-----9b----4--6--7b--7b-7-4---| 
D|-9-----------------------------------------------------------------------| 
A|-------------------------------------------------------------------------| 
E|-------------------------------------------------------------------------| 
 
e|---------------------------------7-10b--10b-10-7-----------------------------| 
B|---8-10b-10b-10b-10b-10b----8-10-----------------10b-10-8--------------------| 
G|-9------------------------9-------------------------------9----4--6--7b--6-4-| 
D|-----------------------------------------------------------------------------| 
A|-----------------------------------------------------------------------------| 
E|-----------------------------------------------------------------------------| 
 
e|---------------------------------------10----------10--------------| 
B|-----------------------------------10b----10b--10b----10b--10b-10b-| 
G|---7-9b-9b-9b-9b----7-9b-9b-9b-9b----------------------------------| 
D|-9----------------9------------------------------------------------| 
A|-------------------------------------------------------------------| 
E|-------------------------------------------------------------------| 
 
e|-10b-10--10b-10-10b-10-10b----10---------------| 
B|---------------------------------10b-8h--------| 
G|----------------------------------------9b-9b--| 
D|-----------------------------------------------| 
A|-----------------------------------------------| 
E|-----------------------------------------------| 
 
e|-------------------------------------10b-10-10b--------| 
B|--10---------------------------------------------------| 
G|-----9br--9b-9-9--7-9--9b-9-9-7-9----------------------| 
D|-------------------------------------------------------| 
A|-------------------------------------------------------| 
E|-------------------------------------------------------| 
 
 
 
Bm 
Had a friend once, in a room. 
A                          Bm 
Had a good time, but it ended much to soon. 
Bm 
In a cold month, in that room. 
A                      Bm 
Found a reason for the things we had to do. 
 
 
Bm              D 
I'm a blind, I'm a blind man. 
G               Em 
Now my world is cold. 
Bm                      D 
When a blind man cries, 
                 G    F#/D   Em    Bm 
Lord you know he feels it from his soul 
 
 
_______________________________________________________ 
 

		  

Full key step upFull key step up
Half key step upHalf key step up
Half key step downHalf key step down
Full key step downFull key step down
auto scroll beats size up size down change color hide chords drawings
tab show chords e-chords YouTube Clip e-chords hide all tabs e-chords go to top tab

share