Deep Purple

Rat Bat Blues

Deep Purple

tabs Expert expert

save to print version add songbook text version e-mail correct tuner
chordsukulelecavacokeyboardtabbassdrumsharmonicaflute Guitar Pro
close

there isn't a video lesson for this song

chords

Rat Bat Blues

	  		ok this sounds right to me... im almost positive that this it it! please rate! 
 
 
 
Play this 6 times 
E|------------------------------------------| 
B|------------------------------------------| 
G|------------------------------------------| 
D|------------------------------------------| 
A|----7-7p5-X-7-5-----5h7----7-7p5-X-7-5~\--| 
E|--0-------------0-0-------0---------------| 
 
 
Verse 1 
 
A5 C5 G5 A5 
E|----------------------------------------------------------------------- 
B|----------------------------------------------------------------------- 
G|---------------------5------------------------------------------------- 
D|--7------------------5------------------5------------------7----------- 
A|--7------------------3------------------5------------------7----------- 
E|--5-------------------------------------3------------------5----------- 
Hey baby, what you gonna do When the lights go up on you ? 
 
E|--------------------------------------- 
B|--------------------------------------- 
G|--------5------------------------------ 
D|------5-------------------------------- 
A|--6-7-----6-5---5-------5---5-6-5------ 
E|--------------8---8-5-8---8-------8-5--  
 
A5 G5 D5 A5 
E|------------------------------------------------------------------------------- 
B|------------------------------------------------------------------------------- 
G|----------------------------------------------7-------------------------------- 
D|--7------------------------5------------------7------------------7------------- 
A|--7------------------------5------------------5------------------7------------- 
E|--5------------------------3-------------------------------------5-------------  
What's your name, can I drive you home? Sweet woman, are you all alone ? 
 
E|--------------------------------------- 
B|--------------------------------------- 
G|--------5------------------------------ 
D|------5-------------------------------- 
A|--6-7-----6-5---5-------5---5-6-5------ 
E|--------------8---8-5-8---8-------8-5--  
 
D5 D5 D5 D5 D5 A5 A5  
E|----------------------------------------------------------------------------- 
B|----------------------------------------------------------------------------- 
G|--7--X--X---7--X--X---7--X--X---7--X--X---7--X--X---------------------------- 
D|--7--X--X---7--X--X---7--X--X---7--X--X---7--X--X---------------7-------7---- 
A|--5--X--X---5--X--X---5--X--X---5--X--X---5--X--X---------------7-------7---- 
E|----------------------------------------------------------------5-------5---- 
You're the one for me I'm gonna keep you busy as a bee, could be, could be 
 
E|--------------------------------------- 
B|--------------------------------------- 
G|--------5------------------------------ 
D|------5-------------------------------- 
A|--6-7-----6-5---5-------5---5-6-5------ 
E|--------------8---8-5-8---8-------8-5-- 
 
E5 D5 C5 A5 
E|------------------- 
B|------------------- 
G|-9-----7--\5------- 
D|-9-----7--\5--7---- 
A|-7-----5--\3--7---- 
E|--------------5---- 
 
 
E|------------------------------------------------------- 
B|------------------------------------------------------- 
G|------------------------------------------------------- 
D|------------------------------------------------------- 
A|-----------------7-7p5-X-7-5-----5h7----7-7p5-X-7-5~\-- 
E|---------------0-------------0-0-------0--------------- 
Rat bat blue 
 
E|------------------------------------------ 
B|------------------------------------------ 
G|------------------------------------------ 
D|------------------------------------------ 
A|----7-7p5-X-7-5-----5h7----7-7p5-X-7-5~\-- 
E|--0-------------0-0-------0--------------- 
 
E|------------------------------------------------------- 
B|------------------------------------------------------- 
G|------------------------------------------------------- 
D|------------------------------------------------------- 
A|-----------------7-7p5-X-7-5-----5h7----7-7p5-X-7-5~\-- 
E|---------------0-------------0-0-------0--------------- 
Rat bat blue 
 
E|-------------------------------------------------------| 
B|-------------------------------------------------------| 
G|-------------------------------------------------------| 
D|-------------------------------------------------------| 
A|-----------------7-7p5-X-7-5-----5h7----7-7p5-X-7-5~\--| 
E|---------------0-------------0-0-------0---------------| 
Rat bat blue 
 
 
Verse 2 
 
A5 C5 G5 A5 
E|----------------------------------------------------------------------- 
B|----------------------------------------------------------------------- 
G|---------------------5------------------------------------------------- 
D|--7------------------5------------------5------------------7----------- 
A|--7------------------3------------------5------------------7----------- 
E|--5-------------------------------------3------------------5----------- 
Now, get up woman, don't be slow It's getting late and I wanna go 
 
E|--------------------------------------- 
B|--------------------------------------- 
G|--------5------------------------------ 
D|------5-------------------------------- 
A|--6-7-----6-5---5-------5---5-6-5------ 
E|--------------8---8-5-8---8-------8-5--  
 
A5 G5 D5 A5 
E|----------------------------------------------------------- 
B|----------------------------------------------------------- 
G|------------------------------7---------------------------- 
D|--7---------------5-----------7--------------7------------- 
A|--7---------------5-----------5--------------7------------- 
E|--5---------------3--------------------------5-------------  
No cause for acting big Got to love, got to live 
 
E|--------------------------------------- 
B|--------------------------------------- 
G|--------5------------------------------ 
D|------5-------------------------------- 
A|--6-7-----6-5---5-------5---5-6-5------ 
E|--------------8---8-5-8---8-------8-5--  
 
D5 D5 D5 D5 D5 A5 A5  
E|-------------------------------------------------------------------------------------- 
B|-------------------------------------------------------------------------------------- 
G|--7--X--X---7--X--X---7--X--X---7--X--X---7--X--X------------------------------------- 
D|--7--X--X---7--X--X---7--X--X---7--X--X---7--X--X---------------7-------7------------- 
A|--5--X--X---5--X--X---5--X--X---5--X--X---5--X--X---------------7-------7------------- 
E|----------------------------------------------------------------5-------5------------- 
Stick around with me I'm gonna show you things you never thought you'd see, you see 
 
E|--------------------------------------- 
B|--------------------------------------- 
G|--------5------------------------------ 
D|------5-------------------------------- 
A|--6-7-----6-5---5-------5---5-6-5------ 
E|--------------8---8-5-8---8-------8-5-- 
 
E5 D5 C5 A5 
E|------------------- 
B|------------------- 
G|-9-----7--\5------- 
D|-9-----7--\5--7---- 
A|-7-----5--\3--7---- 
E|--------------5---- 
 
E|------------------------------------------------------- 
B|------------------------------------------------------- 
G|------------------------------------------------------- 
D|------------------------------------------------------- 
A|-----------------7-7p5-X-7-5-----5h7----7-7p5-X-7-5~\-- 
E|---------------0-------------0-0-------0--------------- 
Rat bat blue 
 
E|--------------------------------------------------------- 
B|--------------------------------------------------------- 
G|--------------------------------------------------------- 
D|--------------------------------------------------------- 
A|-------------------7-7p5-X-7-5-----5h7----7-7p5-X-7-5~\-- 
E|-----------------0-------------0-0-------0--------------- 
You're so fine 
 
E|------------------------------------------------------- 
B|------------------------------------------------------- 
G|------------------------------------------------------- 
D|------------------------------------------------------- 
A|-----------------7-7p5-X-7-5-----5h7----7-7p5-X-7-5~\-- 
E|---------------0-------------0-0-------0--------------- 
Rat bat blue 
 
E|------------------------------------------ 
B|------------------------------------------ 
G|------------------------------------------ 
D|------------------------------------------ 
A|----7-7p5-X-7-5-----5h7----7-7p5-X-7-5~\-- 
E|--0-------------0-0-------0--------------- 
 
Play 8 times this 
E|----------------------- 
B|----------------------- 
G|----------------------- 
D|----------------------- 
A|--------3---------3---- 
E|--0-3-5---5--3-5----5-- 
 
and 4 times this 
E|---------------------------------| 
B|---------------------------------| 
G|---------------------------------| 
D|---------------------------------| 
A|--------3---------------3--------| 
E|--0-3-5---5-5-5-3-5-5-5---5-5-5--| 
 
Keyboard solo 
 
Play this 4 times 
E|------------------------------------------| 
B|------------------------------------------| 
G|------------------------------------------| 
D|------------------------------------------| 
A|----7-7p5-X-7-5-----5h7----7-7p5-X-7-5~\--| 
E|--0-------------0-0-------0---------------| 
 
 
Verse 3 
 
A5 C5 G5 A5 
E|----------------------------------------------------------------------- 
B|----------------------------------------------------------------------- 
G|---------------------5------------------------------------------------- 
D|--7------------------5------------------5------------------7----------- 
A|--7------------------3------------------5------------------7----------- 
E|--5-------------------------------------3------------------5----------- 
Get out ! You didn't understand I'm a hard loving man 
 
E|--------------------------------------- 
B|--------------------------------------- 
G|--------5------------------------------ 
D|------5-------------------------------- 
A|--6-7-----6-5---5-------5---5-6-5------ 
E|--------------8---8-5-8---8-------8-5--  
 
A5 G5 D5 A5 
E|--------------------------------------------------------------- 
B|--------------------------------------------------------------- 
G|------------------------------7-------------------------------- 
D|--7---------------5-----------7------------------7------------- 
A|--7---------------5-----------5------------------7------------- 
E|--5---------------3------------------------------5-------------  
No way you can satisfy The way you look, the way you lie 
 
E|--------------------------------------- 
B|--------------------------------------- 
G|--------5------------------------------ 
D|------5-------------------------------- 
A|--6-7-----6-5---5-------5---5-6-5------ 
E|--------------8---8-5-8---8-------8-5--  
 
D5 D5 D5 D5 D5 A5 A5  
E|-------------------------------------------------------------------------------------- 
B|-------------------------------------------------------------------------------------- 
G|--7--X--X---7--X--X---7--X--X---7--X--X---7--X--X------------------------------------- 
D|--7--X--X---7--X--X---7--X--X---7--X--X---7--X--X------------------7-------7---------- 
A|--5--X--X---5--X--X---5--X--X---5--X--X---5--X--X------------------7-------7---------- 
E|-------------------------------------------------------------------5-------5---------- 
And when you shut the door Make sure I don't see you 'round here no more, no more 
 
E|--------------------------------------- 
B|--------------------------------------- 
G|--------5------------------------------ 
D|------5-------------------------------- 
A|--6-7-----6-5---5-------5---5-6-5------ 
E|--------------8---8-5-8---8-------8-5-- 
 
E5 D5 C5 A5 
E|------------------- 
B|------------------- 
G|-9-----7--\5------- 
D|-9-----7--\5--7---- 
A|-7-----5--\3--7---- 
E|--------------5---- 
 
E|------------------------------------------------------- 
B|------------------------------------------------------- 
G|------------------------------------------------------- 
D|------------------------------------------------------- 
A|-----------------7-7p5-X-7-5-----5h7----7-7p5-X-7-5~\-- 
E|---------------0-------------0-0-------0--------------- 
Rat bat blue 
 
E|------------------------------------------------------- 
B|------------------------------------------------------- 
G|------------------------------------------------------- 
D|------------------------------------------------------- 
A|-----------------7-7p5-X-7-5-----5h7----7-7p5-X-7-5~\-- 
E|---------------0-------------0-0-------0--------------- 
Rat bat blue  
 
E|------------------------------------------ 
B|------------------------------------------ 
G|------------------------------------------ 
D|------------------------------------------ 
A|----7-7p5-X-7-5-----5h7----7-7p5-X-7-5~\-- 
E|--0-------------0-0-------0--------------- 
 
E|------------------------------------------------------- 
B|------------------------------------------------------- 
G|------------------------------------------------------- 
D|------------------------------------------------------- 
A|-----------------7-7p5-X-7-5-----5h7----7-7p5-X-7-5~\-- 
E|---------------0-------------0-0-------0--------------- 
Rat bat blue 
 
E|------------------------------------------ 
B|------------------------------------------ 
G|------------------------------------------ 
D|------------------------------------------ 
A|----7-7p5-X-7-5-----5h7----7-7p5-X-7-5~\-- 
E|--0-------------0-0-------0---------------  
 
E|------------------------------------------------------- 
B|------------------------------------------------------- 
G|------------------------------------------------------- 
D|------------------------------------------------------- 
A|-----------------7-7p5-X-7-5-----5h7----7-7p5-X-7-5~\-- 
E|---------------0-------------0-0-------0--------------- 
Allright  
 
E|------------------------------------------ 
B|------------------------------------------ 
G|------------------------------------------ 
D|------------------------------------------ 
A|----7-7p5-X-7-5-----5h7----7-7p5-X-7-5~\-- 
E|--0-------------0-0-------0--------------- 
 
E|------------------------------------------ 
B|------------------------------------------ 
G|------------------------------------------ 
D|------------------------------------------ 
A|----7-7p5-X-7-5-----5h7----7-7p5-X-7-5~\-- 
E|--0-------------0-0-------0--------------- 
 
E|------------------------------------------------------- 
B|------------------------------------------------------- 
G|------------------------------------------------------- 
D|------------------------------------------------------- 
A|-----------------7-7p5-X-7-5-----5h7----7-7p5-X-7-5~\-- 
E|---------------0-------------0-0-------0--------------- 
Rat bat blue 
 
E|------------------------------------------------------- 
B|------------------------------------------------------- 
G|------------------------------------------------------- 
D|------------------------------------------------------- 
A|-----------------7-7p5-X-7-5-----5h7----7-7p5-X-7-5~\-- 
E|---------------0-------------0-0-------0--------------- 
Rat bat blue 
 

		  

Full key step upFull key step up
Half key step upHalf key step up
Half key step downHalf key step down
Full key step downFull key step down
auto scroll beats size up size down change color hide chords drawings
tab show chords e-chords YouTube Clip e-chords hide all tabs e-chords go to top tab

share